Walong Baso

Parokya Ni Edgar
Author:
Album:
Middle-Aged Juvenile Novelty Pop Rockers (2010)
Difficulty:
Normal
Tuning:
Standard (E-A-D-G-B-E)
Capo:
No Capo
Date Published:
10 months ago
465 views

Chords

Am-X02210Dm-XX0231G-320033Em-022000
[Intro]
Am - G [2X]

[Note] Kung di maayos itsura ng tabs sa phone niyo punta 
lang kayo sa settings tapos check niyo yung desktop mode

   ------------------------------------------------------------------------------
   ---1-0---1-0--------0-1---1-----1-0----------1-0----------1-0------------
   -2-----2------2-0-2-----2---2-2------2-0---2------2-0---2-----2-0---[2x]
   -------------------------------------------------------------------------------
   -------------------------------------------------------------------------------
   -------------------------------------------------------------------------------

   -------------------------------------------------------------------------------------------------------------
   ------13-12-----13-12-------------12-13-----13-15-----13-12--------------13-12---------------13-12-
   -/14---------14---------14-12-14---------14---------14--------14-12---14---------14-12---14--------
   -------------------------------------------------------------------------------------------------------------
   -------------------------------------------------------------------------------------------------------------
   -------------------------------------------------------------------------------------------------------------

[Verse]

             Am
   Pagkatapos mong uminom
                                               G
   Uminom ka pa ulit ng isa pa
             Am
   Pagkatapos ng dalawa
                                               G
   Uminom ka pa ulit ng isa pa

[Refrain]

              Dm
   Sapagkat walong baso
                      Am
   Ang dapat na maubos mo
             Em
   Dahil sabi sa libro
             Am
   Na kailangan daw ng tao
           Dm
   Ang tubig sa katawan
              Am
   Halos 70 percent
                   Em
   Kung hindi mo yan alam
           Am                                      Am - G [Repeat Intro]
   Malamang ikaw ay absent sa school
         Am - G [Repeat Intro]
   Sa school

[Verse]

                    Am
   Paggising mo tatlo pa lamang
                                                 G
   Ay naduduwal na ko sa busog
           Am
   Pero pinpilit ko
                                                                G
   Hanggang masimot ko ang ika-walo

[Refrain]

              Dm
   Sapagkat walong baso
                      Am
   Ang dapat na maubos mo
             Em
   Dahil sabi sa libro
             Am
   Na kailangan daw ng tao
           Dm
   Ang tubig sa katawan
              Am
   Halos 70 percent
                   Em
   Kung hindi mo yan alam
           Am                                      Am
   Malamang ikaw ay absent sa school
         G 
   Sa school
         Am
   Sa school
        G
   Sa school
 
[Refrain]

             Dm                Am
   Kung saan ka matututo
         Em                             Am
   Ng mga importanteng bagay
              Dm                      Am
   Na kailangan mong malaman
            Em                         Am
   Para mas dumali ang buhay
              Dm           Am
   Tulad ko nabasa ko
         Em                       Am
   Sa isang pulang libro
                Dm                  
   Kulang daw kapag pito lamang
   Am
   Ang naubos mo
              Em                                             Am
   'Di ko lang alam kung sobra na pag siyam

[Outro/Solo]
Am - G [4X]
Dm - Am - Em - Am [2X]
Please rate this tab

Please login to submit your ratings.