Cobra Bird

Parokya Ni Edgar
Author:
Album:
Gulong Itlog Gulong (1999)
Difficulty:
Difficult
Tuning:
Standard (E-A-D-G-B-E)
Capo:
No Capo
Date Published:
10 months ago
126 views

Chords

Em-022000Bbdim - X1232XF#m-244222G-355433A-577655D - X57775Bm-X24432C#m-X46654
[Intro]
[Note] Dapat alam mo yung tunog para makuha mo ito
Em [8X]
Bbdim

[Verse]
[Note] Dapat alam mo yung tunog para makuha mo ito

   ------------------------------------------------------------
   ------------------------------------------------------------
   ------------------------------------------------------------
   ------------------------------------------------------------
   ------4------4---4-------3------3---3------2------2---2-
   -2-2----2-2---2----2-2----2-2---2----2-2---2-2---2----

   ------------------------------------------------------------
   ------------------------------------------------------------
   ------------------------------------------------------------
   ------------------------------------------------------------
   ------------------------------------------------------------
   -2-2-0-2-3-3---2-2---------------------------------------

   Ang cobrabird ay isang bird na parang cobra
   Ito ay color white at meron itong mahabang leeg
   Siguro mga ganito, ganito?
   Mas mahaba pa, ganito?

   ------------------------------------------------------------
   ------------------------------------------------------------
   ------------------------------------------------------------
   ------------------------------------------------------------
   ------4------4---4-------3------3---3------2------2---2-
   -2-2----2-2---2----2-2----2-2---2----2-2---2-2---2----

   ------------------------------------------------------------
   ------------------------------------------------------------
   ------------------------------------------------------------
   ------------------------------------------------------------
   ------------------------------------------------------------
   -2-2-0-2-3-3---2-2---------------------------------------

   'Yan, gan'yan
   Una itong na-discover noong 1976
   Ng isang maitim na Ruso
   Na nagngangalang Leo Dela Cruz Mutton
   Na siya rin namang nakaimbento
   Ng tinatawag nating question mark

   ------------------------------------------------------------
   ------------------------------------------------------------
   ------------------------------------------------------------
   ------------------------------------------------------------
   ------4------4---4-------3------3---3------2------2---2-
   -2-2----2-2---2----2-2----2-2---2----2-2---2-2---2----

   ------------------------------------------------------------
   ------------------------------------------------------------
   ------------------------------------------------------------
   ------------------------------------------------------------
   ------------------------------------------------------------
   -2-2-0-2-3-3---2-2---------------------------------------

   Dati-rati ay madalas kaming makakita
   Ng mga specimen tuwing may out-of-town, ngayon hindi na
   Ang cobrabird ay pinaniniwalaan ng lahat
   Na tuluyan nang na-extinct lahat except si Vinci

   -----------------------------------------------------------
   -----------------------------------------------------------
   -----------------------------------------------------------
   -2---------------------------------------------------------
   ---2-0-2--------------------------------------------------
    -----------3-0-2-----------------------------------------
   Ako? Vinci?

[Chorus]

   -----------------------------------------------------------
   -----------------------------------------------------------
   -----------------------------------------------------------
   ----------------------------------- 8\----------------------
   -2---------4--7\--- [Repeat 8X]  -7\----------------------
   -0---------2--6\---                         6\----------------------
              
   Cobrabird
   Cobrabird
   Cobrabird
   Cobrabird
   Cobrabird
   Cobrabird
   Cobrabird
   Cobrabird

[Verse]

   ------------------------------------------------------------
   ------------------------------------------------------------
   ------------------------------------------------------------
   ------------------------------------------------------------
   ------4------4---4-------3------3---3------2------2---2-
   -2-2----2-2---2----2-2----2-2---2----2-2---2-2---2----

   ------------------------------------------------------------
   ------------------------------------------------------------
   ------------------------------------------------------------
   ------------------------------------------------------------
   ------------------------------------------------------------
   -2-2-0-2-3-3---2-2---------------------------------------

   Ang crocodiledog naman
   Ay isang uri ng reptile na tumatahol
   Parang ganito
   Vinci, bakit? Tahol, heh
   Gano'n, okay?

   ------------------------------------------------------------
   ------------------------------------------------------------
   ------------------------------------------------------------
   ------------------------------------------------------------
   ------4------4---4-------3------3---3------2------2---2-
   -2-2----2-2---2----2-2----2-2---2----2-2---2-2---2----

   ------------------------------------------------------------
   ------------------------------------------------------------
   ------------------------------------------------------------
   ------------------------------------------------------------
   ------------------------------------------------------------
   -2-2-0-2-3-3---2-2---------------------------------------

   Tulad ng karaniwang aso
   Ang crocodiledog ay maraming ipin
   Pero mas marami, parang crocodile
   1982 noong unang na-introduce sa Pilipinas ang crocodiledog

   ------------------------------------------------------------
   ------------------------------------------------------------
   ------------------------------------------------------------
   ------------------------------------------------------------
   ------4------4---4-------3------3---3------2------2---2-
   -2-2----2-2---2----2-2----2-2---2----2-2---2-2---2----

   ------------------------------------------------------------
   ------------------------------------------------------------
   ------------------------------------------------------------
   ------------------------------------------------------------
   ------------------------------------------------------------
   -2-2-0-2-3-3---2-2---------------------------------------

   Dala ng mga aborigines na nagtungong Pilipinas
   Gamit ang mga lupang tulay
   Na siya rin namang naglaho paglipas ng ice age
   Sa native tongue ng mga aborigines
   Ang crocodiledog ay kinikilala bilang asorous
   Or great canine lizard

   -----------------------------------------------------------
   -----------------------------------------------------------
   -----------------------------------------------------------
   -2---------------------------------------------------------
   ---2-0-2--------------------------------------------------
    -----------3-0-2-----------------------------------------

[Chorus]

   -----------------------------------------------------------
   -----------------------------------------------------------
   -----------------------------------------------------------
   ----------------------------------- 8\----------------------
   -2---------4--7\--- [Repeat 8X]  -7\----------------------
   -0---------2--6\---                         6\----------------------

   Crocodiledog
   Crocodiledog
   Crocodiledog
   Crocodiledog, crocodiledog
   Crocodiledog
   Crocodiledog
   Crocodiledog
   Crocodiledog, crocodiledog

   ------------------------------------------------------------
   ------------------------------------------------------------
   ------------------------------------------------------------
   ------------------------------------------------------------
   ------4------4---4-------3------3---3------2------2---2-
   -2-2----2-2---2----2-2----2-2---2----2-2---2-2---2----

   ------------------------------------------------------------
   ------------------------------------------------------------
   ------------------------------------------------------------
   ------------------------------------------------------------
   ------------------------------------------------------------
   -2-2-0-2-3-3---2-2---------------------------------------

   ------------------------------------------------------------
   ------------------------------------------------------------
   ------------------------------------------------------------
   -----------------------  4--6--7--9------------------------
   -5------5------5-------2--4--5--7------- 4---------------
   -3------4------5--------------------------2---------------

   ------------------------------------------------------------
   ------------------------------------------------------------
   ------------------------------------------------------------
   ------------------------------------------------------------
   -4---------------7-[Ulitin hanggang matapos solo]-------
   -2---------------5-----------------------------------------

[Bass Solo]

[Chorus]

   -----------------------------------------------------------
   -----------------------------------------------------------
   -----------------------------------------------------------
   ----------------------------------- 8\----------------------
   -2---------4--7\--- [Repeat 8X]  -7\----------------------
   -0---------2--6\---                         6\----------------------

   Cobrabird (crocodiledog)
   Cobrabird (crocodiledog)
   Cobrabird (crocodiledog)
   Cobrabird
   Cobrabird (crocodiledog)
   Cobrabird (crocodiledog)
   Cobrabird (crocodiledog)
   Cobrabird
   I love you like crazy
Please rate this tab

Please login to submit your ratings.