Amats

Parokya Ni Edgar
Author:
Album:
Solid (2007)
Difficulty:
Normal
Tuning:
Standard (E-A-D-G-B-E)
Capo:
No Capo
Date Published:
10 months ago
145 views

Chords

G-320033Em-022000Am-X02210D-XX0232Dsus2 - XX0230Dsus4 - XX0233A-X02220C#m-X46654E-022100C-X32010F#-244322F#m-244222Bsus2- X24422Bm-X24432
[Intro]
G [4X]
   ---------------2-3--2-------------------------------
   -------0-1--3---------3----------3------------------
   -0--2---------------------2-0--2--------------------
   ------------------------------------------------------
   ------------------------------------------------------
   ------------------------------------------------------

   ---------------2---7-7-5-5-3-3-2-2-3--------------
   -------0-1--3----------------------------------------
   -0--2-------------------------------------------------
   ------------------------------------------------------
   ------------------------------------------------------
   ------------------------------------------------------

[Verse]

G                         Em
   Nag-inuman tayo
Am                               D-Dsus2-D
   Masaya ka masaya din ako
                 Em                        C
   Ng barkada ko at ng barkada mo
                Am                    D-Dsus2-D-Dsus4-D
   Lagi na lang tayong tinutukso
             G                          Em
   Ilang bote lang ang lumipas
           Am                             D-Dsus2-D
   Ang hirap mo nang makausap
         Em                                     C
   Mapungay na ang iyong mga mata
               Am                         D-Dsus2-D-Dsus4-D
   Ang paligid ay maingay na

[Refrain]

                  Em                         C
   Tatlong beses mong ikinuwento
                       Am                          G---G-F#
   Nung madapa ka jan sa may kanto
      Em                    C
   Limang ulit kang nalito
               Am                          D-E
   Kung ano ang pangalan ko

[Pre-Chorus]

                A                             C#m
   Pero biglang nawala ang amats ko
                        Bm                  E-D-C#m-Bm
   Nung madulas ang dila mo
             A                           C#m
   Di makapaniwala ang tenga ko
                   Bm                   E-D-C#m-Bm
   Nung biglang sabihin mo

[Chorus]

F#m                     Bsus2
   Masarap ka palang kausap
F#m                             Bsus2
   Buong maghapon o magdamag
F#m                              Bsus2
   Alam mo ba ang sikreto ko
            D                           E
   Matagal na kitang gusto

[Verse]

G                            Em
   Pagkatapos ng isang linggo
C                                   D-Dsus2-D
   Binantayan ko mga kilos mo
           Em                                     C
   Tinanong ko ang mga kabarkada mo
                Am                     D-Dsus2-D-Dsus4-D
   Wala akong nakuha kahit ano

[Refrain]

                 Em                           C
   Tatlong beses kong pinagisipan
                   Am                  G---G-F#
   Baka nagpapakipot ka lang
                   Em              C
   Limang ulit kong sinabi sa sarili
          Am                             D-E
   Ganyan talaga ang babae

[Pre-Chorus]

                 A                               C#m
   Kaya biglang nawala ang duda ko
            Bm                     E-D-C#m-Bm
   Nadulas na ang dila mo
                  A                            C#m
   Hindi makapaniwala ang tenga ko
        Bm                 E-D-C#m-Bm
   Noong sinabi mo

[Chorus]

F#m                     Bsus2
   Masarap ka palang kausap
F#m                              Bsus2
   Buong maghapon o magdamag
F#m                              Bsus2
   Alam mo ba ang sikreto ko
            D                           E
   Matagal na kitang gusto

[Verse]

G                        Em
   Di ko na mapigilan
C                                   D-Dsus2-D
   Kailangan kong malaman
           Em                        C
   Tinulungan kitang aminin
                    Am                       D-Dsus2-D-Dsus4-D
   Ang matagal mo nang inililihim

[Refrain]

                  Em                           C
   Tatlong beses mo akong minura
        Am                               G---G-F#
   Sa harap ng iyong barkada
                 Em                                 C
   Limang ulet na nabasag ang puso ko
                 Am                                    D-E
   Nung sabihin mong ang kapal mo

[Pre-Chorus]

                 A                              C#m
   Kaya biglang nawala ang amats ko
            Bm                       E-D-C#m-Bm
   Nakagat ko ang dila ko
            A                            C#m
   Di makapaniwala ang tenga ko
              Bm            E-D-C#m-Bm
   Sa mga sinabi mo

[Chorus]

F#m                        Bsus2
   Ang labo mo palang kausap
F#m                              Bsus2
   Kapag may beer ka lang matapat
F#m                            Bsus2
   Kahit maubos ang pera ko
             D                                E
   Mag-inuman na lamang tayo

[Bridge]

     A                            C#m
   Sana pag ubos na ang pulutan
            Bm                                E-D-C#m-Bm
   At tapos na ang mga kwentuhan
              A                                     C#m
   Pag simot na ang laman ng bote ko
     Bm                                E-D-C#m-Bm
   Sana'y mahal mo ulit ako

[Outro]
A [5X]
Parang intro lang ito higher key lang
   ---------------4-5--4-------------------------------
   -------2-3--5---------5----------5------------------
   -2--4---------------------4-2--4--------------------
   ------------------------------------------------------
   ------------------------------------------------------
   ------------------------------------------------------

   ---------------4---9-9-7-7-5-5-4-4-5--------------
   -------2-3--5----------------------------------------
   -2--4-------------------------------------------------
   ------------------------------------------------------
   ------------------------------------------------------
   ------------------------------------------------------
Please rate this tab

Please login to submit your ratings.