Nakaka-Inis

Parokya Ni Edgar
Author:
Album:
Solid (2007)
Difficulty:
Normal
Tuning:
Standard (E-A-D-G-B-E)
Capo:
No Capo
Date Published:
10 months ago
159 views

Chords

Gb-244322Ebm-X68876Bbm-688666Db-X46664B-X24442
[Intro]
Gb - Ebm - Bbm - Db

[Note] Kung di maayos itsura ng tabs sa phone niyo punta 
lang kayo sa settings tapos check niyo yung desktop mode

   -2-2-2-2-[3X]-4-4-4-6-6-6-6-[3X]-4-4-4-4----
   ---------------------------------------------------
   ---------------------------------------------------
   ---------------------------------------------------
   ---------------------------------------------------
   ---------------------------------------------------

   ---------------------------------------------------
   -6-6-6-7-7-7-9-9--6-6-6-7-7-7-9-------------
   ---------------------------------------------------
   ---------------------------------------------------
   ---------------------------------------------------
   ---------------------------------------------------

   -7-6----7-6---7-6----7-6---9-----------------9-----
   ------7------7------7------7---9------------9----9--
   -----------------------------------10-----10---------
   ---------------------------------------11-------------
   ------------------------------------------------------
   ------------------------------------------------------

   ------------------------------------------------------------
   ------------------------12-11---------------12-11--------
   -10-11/13-13-----11---------11 13----12--------11-13-
   ----------------13--------------------13-------------------
   ------------------------------------------------------------
   -----------------------------------------------------------

   ----------------9-7-6------------------------------------------
   ---7---------7--------7----------------------------------------
   -8---8----8----------------------------------------------------
   --------9----------------------------------------------------
   ------------------------------------------------------------
   ------------------------------------------------------------

[Verse]

   Gb                             Ebm           Bbm                 Db
   Wag, wag naman sana ako maiwan na mag-isa
              Gb                         Ebm           
   Magliligpit ng lahat ng ito
                 Bbm                              Db
   Pinagkainan ngunit hindi hinugasan
       Gb                                       Ebm
   Lakas, ang lakas nyong uminom
                           Bbm                            Db
   Ngunit sandali lang wala akong katulong
              Gb                  Ebm                  Bbm                            
   Magliligpit ng mga baso, at mga bote
                                 Db
   Mga natunaw na yelo
        Gb                   Ebm                        Bbm
   Bakit, bakit may putik ngunit kulay black
                       Db
   Hindi kulay chocolate
        Gb                  Ebm
   Dumi, galing sa sapatos
                      Bbm                      Db
   Aba ewan ko wala akong paki

[Chorus]

                   Gb           Db
   Nakakaninis maglinis
                  Ebm           B
   Nakakainis, nakakainis

[Verse]

                  Gb                       Ebm
   Bakit ganun itim yung sabon
                     Bbm                 Db
   At mamantika, ayoko na yata
                              Gb                   Ebm
   Ang daming buhok itim at kulot
                        Bbm                         Db
   Hindi galing hayop, baka galing brief
                       Gb                   Ebm
   At yung mga marka sa lamesa
                       Bbm                     Db
   Mistula ng mapa ng Saudi Arabia
   
[Chorus]

                            Gb                  Db
   Ang daming langis, nakakainis
Ebm                     B
   Nakakainis, nakakainis

[Outro]

Gb            Ebm            Bbm
   Nakakainis, nakakainis
                                Db
   Sobrang nakakainis
                 Gb           Db
   Nakakainis maglinis
                 Ebm            B-Gb
   Nakakainis, nakakainis
      
Please rate this tab

Please login to submit your ratings.