Mr. Suave

Parokya Ni Edgar
Author:
Album:
Bigotilyo (2003)
Difficulty:
Normal
Tuning:
Standard (E-A-D-G-B-E)
Capo:
No Capo
Date Published:
9 months ago
163 views

Chords

Bm-X24432E-022100AM7-X02120F#m-244222Fdim - 1231XX
[Intro]
Simplified na itong intro kasi medyo complicated na hehe

[Note] Kung di maayos itsura ng tabs sa phone niyo punta 
lang kayo sa settings tapos check niyo yung desktop mode
   -2-----------------0-4-5-4h5p4----------0--5-7-7-----
   -3---3--3--2-3-0----------------5-2-0-2----5---5-----
   -4-4--4--4----------------------------------------------
   ----------------------------------------------------------
   ----------------------------------------------------------
   ---------------------------------------------------------

   -5-4-------- 2-4- 5--------- 2--------------------------
   ------5---2- 2----2--------- 3---3--3--2-3------------
   --------2------------2-------4-4--4--4-----4-2-1-----
   ------------------------4--------------------------------
   --------------------------4------------------------------
   ---------------------------------------------------------

   ----------------------------------------  2---------------
   -----------------3-2h3p2---------------2---------------
   ---2-1h2---1-2-----------4-2-1------- 2---------------
   -2--------2-----------------------4-2-------------------
   ----------------------------------------------------------
   ---------------------------------------------------------

[Verse]

                                   Bm                     E
   Nasa ulap ba ang 'yong mga mata?
                                         AM7                    F#m
   Mukhang malayo ang 'yong pagtingala
                                 Bm                       E
   Pakay ko lamang na ika'y pangitiin
                            F#m-Fdim-F#m
   Ito'y aking lambing
                            Bm                  E 
   Subok na ang aking pag-ibig
                            AM7                F#m
   Ikaw lamang sa buong daigdig
                          Bm                        E
   Tumitibok na puso ko'y dinggin
                              F#m-Fdim-F#m
   Sumama ka na sa akin

[Chorus]

                      Bm
   Ako si Mr. Suave
E        AM7
   Oh, grabe
F#m               Bm
   Habulin ng babae
E                            F#m-Fdim-F#m
   Araw man o gabe
                      Bm
   Ako si Mr. Suave
E        AM7
   Oh, grabe
F#m                            Bm
   Hanep kung dumiskarte
E                            F#m-Fdim-F#m
   Wala silang masabi

[Verse]
                                                     Bm
   Kaya't 'wag ka nang malungkot
E                                     AM7
   Problema'y ibaon sa limot
F#m                 Bm
   'Pagka't nandito lang ako
E                F#m-Fdim-F#m
   Umiibig sa 'yo

[Interlude] [2X]
                                            Bm
   Hoy, hoy, hoy, hoy, hoy, hoy
   (Hoy, hoy, hoy, hoy, hoy, hoy)
E                                          AM7
   Hoy, hoy, hoy, hoy, hoy, hoy
   (Hoy, hoy, hoy, hoy, hoy, hoy)
F#m                                    Bm
   Hoy, hoy, hoy, hoy, hoy, hoy
   (Hoy, hoy, hoy, hoy, hoy, hoy)
E                                          F#m-Fdim-F#m
   Hoy, hoy, hoy, hoy, hoy, hoy

[Bridge]
                                          Bm
   At kung kailangan na ika'y paligayahin
E                                             AM7
   'Wag mag-alinlangan na ika'y lumapit sa akin
F#m                  Bm      
   Hatid sa atin ng suave kong bigote
E                                                     F#m-Fdim-F#m
   Ang smooth na smooth na kilite

[Chorus]
                                   Bm
   'Pagka't ako si Mr. Suave
E        AM7
   Oh, grabe
F#m                Bm
   Habulin ng babae
E                           F#m-Fdim-F#m
   Araw man o gabe
                           Bm
   Oo, ako si Mr. Suave
E        AM7
   Oh, grabe
F#m                            Bm
   Hayop kung dumiskarte
E                    F#m-Fdim-F#m
   Grabe, Mr. Suave

[Interlude] [3X]
                                            Bm
   Hoy, hoy, hoy, hoy, hoy, hoy
   (Hoy, hoy, hoy, hoy, hoy, hoy)
E                                          AM7
   Hoy, hoy, hoy, hoy, hoy, hoy
   (Hoy, hoy, hoy, hoy, hoy, hoy)
F#m                                    Bm
   Hoy, hoy, hoy, hoy, hoy, hoy
   (Hoy, hoy, hoy, hoy, hoy, hoy)
E                                          F#m-Fdim-F#m
   Hoy, hoy, hoy, hoy, hoy, hoy
 
[Outro] [8X]
                                            F#m-Fdim-F#m
   Hoy, hoy, hoy, hoy, hoy, hoy
Please rate this tab

Please login to submit your ratings.