Muli

Parokya Ni Edgar
Author:
Album:
Halina Sa Parokya (2005)
Difficulty:
Normal
Tuning:
Standard (E-A-D-G-B-E)
Capo:
No Capo
Date Published:
11 months ago
227 views

Chords

E-022100EM7-021100Bsus2- X24422B-X24442C#m-X46654A-X02220Bsus4 - X24452Asus2 - X02200B5 - X24400F#7 - 244320
[Intro]
E - EM7 - C#m

[Note] Kung di maayos itsura ng tabs sa phone niyo punta 
lang kayo sa settings tapos check niyo yung desktop mode
   -----7----------------------------------------------------
   ---5---5---4---5---4h5p4-------4h5-4h5--------------
   -4-------4-----------------4---6-----------6---[4X]----
   ----------------------------------------------------------
   ----------------------------------------------------------
   ----------------------------------------------------------
Asus2 - B5
   ----------------------------------------------------------
   --------4-4-5-5-5-4-4-4-5-5-5-------------------------
   -6-6-6---------------------------------------------------
   ----------------------------------------------------------
   ----------------------------------------------------------
   ----------------------------------------------------------

[Verse]

              E                                   Bsus2
   Kay bilis ng pangyayari, hindi ko namalayan
           C#m                         Bsus2
   Na ako pala'y iiwan mo ng gano'n na lang
E
   Kahit na anong gawin
Bsus2
   'Di kayang tanggapin
         C#m                       Bsus2      A-B-Bsus4
   Ng puso at isipan na ika'y lilisan

[Chorus]

         E-EM7                                 C#m
   Maari bang dinggin ang natatangi kong hiling
   A                      B
   Sana ay makapiling ka
          E-EM7       
   Muli kang masilayan
              C#m
   At muli kang mahagkan
   A                    B                      F#7 - A - F#7 - A - B
   Sana'y 'di na iwan pang muli

[Verse]

         E                           Bsus2
   'Di ko sinasadya na ikaw ay masaktan
        C#m                                    Bsus2
   Kaya't sana naman ay 'yong maintindihan
           E                                 Bsus2
   Na ako ay nagsisisi at nangangako sa 'yo
              C#m                             Bsus2         A - B - A - B
   Na hindi ka na luluha pa muli sa piling ko

[Chorus]

         E-EM7                                 C#m
   Maari bang dinggin ang natatangi kong hiling
   A                      B
   Sana ay makapiling ka
         E-EM7      
   Muli kang masilayan
              C#m
   At muli kang mahagkan
   A                    B                      F#7 - A - F#7 - A - B
   Sana'y 'di na iwan pang muli

[Solo]
E - C#m - A - B [2X]

[Bridge]

A                             B
   'Di na ba mapagbibigyan
A                    B
   Bakit 'di maunawaan

[Chorus]

         E-EM7                                 C#m
   Maari bang dinggin ang natatangi kong hiling
   A                      B
   Sana ay makapiling ka
         E-EM7      
   Muli kang masilayan
              C#m
   At muli kang mahagkan
   A                    B                      
   Sana'y 'di na iwan pa
         E-EM7                                 C#m
   Maari bang dinggin ang natatangi kong hiling
   A                     B
   Sana ay patawarin mo
     E-EM7                          C#m
   Ako ay nagsisisi, at nangangako sa 'yo
    A                B                     F#7 - A - F#7 - A - B
   'Di ka na luluha pang muli

[Outro]

   -----7----------------------------------------------------
   ---5---5---4---5---4h5p4-------4h5-4h5--------------
   -4-------4-----------------4---6-----------6---[2X]----
   ----------------------------------------------------------
   ----------------------------------------------------------
   ----------------------------------------------------------
Please rate this tab

Please login to submit your ratings.