Ted Hannah

Parokya Ni Edgar
Author:
Album:
Bigotilyo (2003)
Difficulty:
Normal
Tuning:
Standard (E-A-D-G-B-E)
Capo:
No Capo
Date Published:
11 months ago
173 views

Chords

E-022100EM7-021100B5 - X24400C#m - X46650Asus2 - X02200G#m-466444A-577655Am-577555
[Intro]
E - EM7 [3X]
E - E

   ---------------------------------------------------
   ----------10-9------------------------------------
   --------9-------9----9-8-------------------------
   -9h11------------11-----9-----------------------
   -----------------------------7---------------------
   ---------------------------------------------------

   ---------------------------------12---------------
   ----------10-9--------------10-------------------
   --------9-------9---9-9/11-----------------------
   -9h11------------7-------------------------------
   ---------------------------------------------------
   ---------------------------------------------------

   ---------------------------------------------------
   ----------10-9------------------------------------
   --------9-------9----9-8--------------------------
   -9h11------------11-----9------------------------
   -----------------------------7---------------------
   ---------------------------------------------------

   -------------------   12----------------------------
   ----------10-9----- 12----------------------------
   --------9-------9--- 9-----------------------------
   -9h11-------------   9-----------------------------
   -------------------   11----------------------------
   ---------------------------------------------------

[Verse]

E                        B5-Asus2   C#m-B5      
   Para kang kape di ka nagpapatulog
E                      B5   Asus2             C#m-B5   
   Parang kagabi gising ako hanggang tanghali

[Pre-Chorus]

   C#m                   E                        Asus2           B5
   Di ko nga man lang alam kung sino ka talaga
C#m            E                Asus2-B5
   Kailan kaya kita makikilala

[Chorus]

        E                      EM7           Asus2                  B5
   At pano kung nasulat na sa notebook ng tadhana
            E                       EM7              Asus2              B5
   Ang kwento ng pagibig tungkol sa ating dalawa
             A                     G#m                  A                 Am
   Di kaya sayang naman kung hindi natin susundin
            E                      EM7           Asus2       
   Ang nais na mangyari ng tadhana 

[Interlude]
             E - EM7 - E - E (Repeat Intro)       
   Para sa 'tin

[Verse]

E                        B5-Asus2       C#m-B5      
   Para 'kong tanga di ko man lang naisip
E                                B5     Asus2       C#m-B5      
   Na ang pangarap ay maninitiling panaginip

[Pre-Chorus]

   C#m                E                    Asus2                  B5
   Kung wala akong gawin upang makamtan ka
C#m         E                        Asus2    B5
   Paano ka tatama kung di ka tataya

[Chrous]

        E                            EM7           Asus2                 B5
   At pano kung may contest na sinet-up ang tadhana
        E                           EM7                  Asus2        B5
   At ang unang pa-premyo ay ang makasama ka
             A                      G#m                   A                     Am
   Di kaya sayang naman kung di ko man lang susubukan
         E                  EM7              Asus2           
   Manalo sa pa-raffle ng tadhana 

[Solo]
                   E - B5 - Asus2 - C#m - B5 [2X]
   Tan tan tan tan
 
[Bridge Interlude]
C#m - EM7 - Asus2 - B5 [2X]

[Bridge]

Ito gamitin niyong B5 dito (X24440)

              C#m                 E                 A                  B5
   Hahayaan bang mapunta ka na lamang sa iba
C#m              E                  A                        B5
   Nakwento ko na yata yan sa ibang kanta
         C#m                 E            A                  B5
   At pano kung hindi ako naakit ng tadhana
           C#m           E                   A                B5
   E di sana ay hindi ako ang iyong sinisinta

[Outro]

             A                      G#m                   A                   Am
   Di kaya sayang naman kung di ko man lang susulitin
            E                 EM7           Asus2-Am    
   Ang alay na babae ng tadhana 
              E - EM7 [3X]--- E - E (Repeat Intro)
   Para sa kin
Please rate this tab

Please login to submit your ratings.