Family Dinner

Parokya Ni Edgar
Author:
Album:
Edgar Edgar Musikahan (2002)
Difficulty:
Difficult
Tuning:
Drop D (D-A-D-G-B-E)
Capo:
No Capo
Date Published:
11 months ago
149 views

Chords

B5 - X244XXF#5 - 244XXXG5 - 355XXXA5 - 577XXXE5 - 022XXXD5 - X577XX
[Intro] 

[Note]Wala akong chord diagram ng Drop D
kaya kayo nalang mag convert ng mga chords
sa Drop D

B5 - F#5 - G5 Pause
G5 - A5 - F#5
E5 - F#5
E5 - G5 Pause
G5 - A5


   -----------------------------------------
   -----------------------------------------
   -----4-----4----------------------------
   ---4-----4-----4------------------------[4X]
   -2-----3-----0--------------------------
   -----------------------------------------
[Note] Nakadrop D ito 
   ----------------------------------------
   ----------------------------------------
   ----------------------------------------
   -----2-----2---------------------------[4X]
   ---2-----2-----2-----------------------
   -2-----3-----0-------------------------

   You and we're family
   Whenever we're together we are happy
   We sing sang songs like ABC
   We kan tu ten like 123

[Chorus Riff]
B5 ---- C5
B5 ---- D5

   Be good be good
   Sometimes we're bad

C5-B5-C5-B5-C5-B5-C5-B5 [4X]

   Do you wanna be good yes yes yo!
   Do you wanna be bad? no no nino!

[Repeat Intro]

[Note] Drop D itong plucking
   -----------------------------------------
   -----------------------------------------
   -----4-----4----------------------------
   ---4-----4-----4------------------------[4X]
   -2-----3-----0--------------------------
   -----------------------------------------

   ----------------------------------------
   ----------------------------------------
   ----------------------------------------
   -----2-----2---------------------------[4X]
   ---2-----2-----2-----------------------
   -2-----3-----0-------------------------
   Hey mama hey papi hey brothers hey sister
   Tell me what you want what you want for dinner

[Chorus Riff]
A5 -B5 ---- C5
A5 -B5 ---- D5

   What do you want for dinner meat!
   What do you want to eat pansit!
   What do you want for dinner meat!
   And it goes a lilsumthinlyk fried chicken!


   --------------------------4------------
   -3/5-5-5--3/5-5-5--3-----2-3-4/5---
   ----------------------------------------
   ----------------------------------------
   ----------------------------------------
   ----------------------------------------
   Friedchicken fried chicken masarap ang fried chicken
   Paborito koy pakpak and it goes a lilsumthinlyk fired
   Chicken!
   ----------------------------------------
   -5/7-7-7--9\7-7-7--5-5-5/7-7-7/9---
   ----------------------------------------
   ----------------------------------------
   ----------------------------------------
   ----------------------------------------

C5-B5-C5-B5-C5-B5-C5-B5 [4X]

   Fried chicken yes yes yo!
   Mamon mamonininoni sa rap ng mamom!
   Fettuccini yes yes yo!
   Lechon c'mon c'mon

[Repeat Verse Plucking]

[Outro]

B5 - C5 - D5 - B5 - C5 - A5 [7X]
B5 - C5 - D5 - B5 - C5 

   Papi would you like some sausage?
   Nothing could be better
   Papi would you like some sausage?
   Than a family get together
Please rate this tab

Please login to submit your ratings.