First Day Funk – Version 1

Parokya Ni Edgar
Author:
Album:
Halina Sa Parokya (2005)
Difficulty:
Difficult
Tuning:
Standard (E-A-D-G-B-E)
Capo:
No Capo
Date Published:
11 months ago
149 views

Chords

A-X02220
[Intro]

[Note] Kung di maayos itsura ng tabs sa phone niyo punta 
lang kayo sa settings tapos check niyo yung desktop mode
   -------------------------------------------------
   -------------------------------------------------
   -------------------------------------------------
   ------7-5---2-5---5-2-5---7-------------------
   ---------------------------------[3X]------------
   -5--- 5-3---0-3---3-0-3---5-------------------
   Let's do the funk, let's do the first day funk



   -------------------------------------------------
   -------------------------------------------------
   -------------------------------------------------
   ------7-5---2-5---5-2-5---7-------------------
   -------------------------------------------------
   -5--- 5-3---0-3---3-0-3---5---5---------------
   Let's do the funk, let's do the first day

[Verse]
Ulit ulit lang itong bass riff pero pag papasok na
chorus hindi na ipiplay yung last note (5)

   -------------------------------------------------
   -------------------------------------------------
   -------------------------------------------------
   -----7-------------------------------------------
   ---------------------5---5-5-----3----3/5-------
   -5-------3/5-5-3-0-----------5----5------------

   -------------------------------------------------
   -------------------------------------------------
   -------------------------------------------------
   -----7-------------------------------------------
   ---------------------5---5-5-----3---3---------
   -5-------3/5-5-3-0-----------5--------(5)------
   First day of school, dapat cool na cool
   Mas cool pa sa tubig ng swimming pool
   Dapat talaga maganda na agad ang pasok
   Pagpasok mo ng classroom, dapat umuusok
   'Wag na wag kang mapapraning
   Sagot kita, deretso ang tingin
   'Di dapat maatat na mapansin
   Kahit hot lahat, dapat chill pa rin
   Hinding-hindi yumuyuko kahit na nakaupo
   'Di ko sinasabi na dapat maging mayabang
   Pero dapat 'di ka mahiyain na halaman
   Confidence, tsong, lakas-loob
   'Wag na 'wag kang patataob
   Kahit sa tapat ng maganda mong kaklase
   Mas lalo na sa prof mong mukhang salbahe, dance

[Chorus]

   -------------------------------------------------
   -------------------------------------------------
   -------------------------------------------------
   -------------------------------------------------
   -------------------------------------------------
   -3-5-5---3-5--[4X]----------------------------
   Let's do the funk, let's do the first day funk
   Let's do the funk, let's do the first day funk
   Let's do the funk, let's do the first day funk
   Let's do the funk, let's do the first day funk
   
   
[Verse]
   
   -------------------------------------------------
   -------------------------------------------------
   -------------------------------------------------
   ---------7---------------------------------------
   ----------------------5---5-----3---3/5---------
   -(3)-5------3-5-3-0-------5-5---5-------------
   Sa una lang gagamitin yung (3) sa susunod
   rekta na sa 5 

   -------------------------------------------------
   -------------------------------------------------
   -------------------------------------------------
   ------7-----------------------------------------
   ------------------5---5------3---3-------------
   -5------3-5-3-0--------5-5--------------------
   Itaas ang kamay, iwagayway
   Salute the prof at sabay kaway
   Mag-classmate, high-five lang kayo
   Now, don't be shy, kuwela 'skuwela 'to
   Just raise your hand kung may sagot
   If you don't know the answer, eh 'di, lagot
   Just erase the board at magsayaw
   Lagyan ng funk ang paggalaw, sayaw

[Chorus]

   -------------------------------------------------
   -------------------------------------------------
   -------------------------------------------------
   -------------------------------------------------
   -------------------------------------------------
   -3-5-5---3-5--[4X]----------------------------
   Let's do the funk, let's do the first day funk
   Let's do the funk, let's do the first day funk
   Let's do the funk, let's do the first day funk
   Let's do the funk, let's do the first day funk

[Verse]

   -------------------------------------------------
   -------------------------------------------------
   -------------------------------------------------
   ---------7---------------------------------------
   ----------------------5---5-----3---3/5---------
   -(3)-5------3-5-3-0-------5-5---5-------------
   Sa una lang gagamitin yung (3) sa susunod
   rekta na sa 5 

   -------------------------------------------------
   -------------------------------------------------
   -------------------------------------------------
   ------7-----------------------------------------
   ------------------5---5------3---3-------------
   -5------3-5-3-0--------5-5--------5-----------

   -------------------------------------------------
   -------------------------------------------------
   -------------------------------------------------
   ------7------------------6h7-6h7--------------
   ------------------5---5------------------------
   -5------3-5-3-0-------------------------------
   Ito gagamitin pag papasok na chorus



   At may dumating na isang babae
   Sobrang hottie na kaklase
   S'ya'y lumapit at nag-"hi"
   Ako nama'y napakaway
   Akala ko, ako ang kanyang kinakawayan
   At hindi ko inakala na ang nasa likuran
   Kahit na napahiya, 'di ako kinabahan
   Wala na 'tong ibang mapupuntahan, sayaw

[Chorus]

   -------------------------------------------------
   -------------------------------------------------
   -------------------------------------------------
   -------------------------------------------------
   -------------------------------------------------
   -3-5-5---3-5--[4X]----------------------------
   Let's do the funk, let's do the first day funk
   Let's do the funk, let's do the first day funk
   Let's do the funk, let's do the first day funk
   Let's do the funk, let's do the first day funk

   -------------------------------------------------
   -------------------------------------------------
   -------------------------------------------------
   ---------7---------------------------------------
   ----------------------5---5-----3---3/5---------
   -(3)-5------3-5-3-0-------5-5---5-------------
   Sa una lang gagamitin yung (3) sa susunod
   rekta na sa 5 

   -------------------------------------------------
   -------------------------------------------------
   -------------------------------------------------
   ------7-----------------------------------------
   ------------------5---5------3---3-------------
   -5------3-5-3-0--------5-5--------5-----------
   Itaas ang kamay, iwagayway
   Salute the prof at sabay kaway
   Mag-classmate, high-five lang kayo
   Now, don't be shy, kuwela 'skuwela 'to
   Just raise your hand kung may sagot
   If you don't know the answer, eh 'di, lagot
   Just erase the board at magsayaw
   Lagyan ng funk ang paggalaw, sayaw

[Chorus]

   -------------------------------------------------
   -------------------------------------------------
   -------------------------------------------------
   -------------------------------------------------
   -------------------------------------------------
   -3-5-5---3-5--[4X]----------------------------
   Let's do the funk, let's do the first day funk
   Let's do the funk, let's do the first day funk
   Let's do the funk, let's do the first day funk
   Let's do the funk, let's do the first day funk


   -------------------------------------------------
   -------------------------------------------------
   -------------------------------------------------
   -----7---5-5-5-5---5---5-----5---5/7---------
   -------------------7-------7-7---7--------------
   -5------------------------------------------------


   -------------------------------------------------
   -------------------------------------------------
   -------------------------------------------------
   -----7---5-5-5-5---5---5------------------------
   -------------------7-----------------------------
   -5-------------------------5---7h8-7h8---------

   -------------------------------------------------
   -------------------------------------------------
   -------------------------------------------------
   -----7---5-5-5-5---5---5-----5---5/7---------
   -------------------7-------7-7---7--------------
   -5------------------------------------------------

   -------------------------------------------------
   -------------------------------------------------
   -------------------------------------------------
   -----7---5-5-5-5---5---------------------------
   -------------------7-------3---------------------
   -5-----------------------5-----5/14\--5---------
   Let's do the funk, let's do the first day funk
   Let's do the funk, let's do the first day funk
   Let's do the funk, let's do the first day funk
   Let's do the funk, let's do the first day
Please rate this tab

Please login to submit your ratings.