Swimming Beach

Parokya Ni Edgar
Author:
Album:
Edgar Edgar Musikahan (2002)
Difficulty:
Normal
Tuning:
Standard (E-A-D-G-B-E)
Capo:
No Capo
Date Published:
1 year ago
172 views

Chords

CM7-X32000G7-320001FM7-XX3210Am7-X02010Dm7 - XX0211Em-022000F-133211G-355433Dm-XX0231
[Verse]

CM7                FM7
   Tayo na nga
CM7           FM7             Em              Am7
   Sino pa ba'ng hinihintay natin dito?
          Dm7        G7
   Naiinip na ako
CM7               FM7
   Sige na nga
CM7                  FM7              Em                  Am7
   Apakan mo na'ng silinyador ng auto mo
    Dm7                         G7
   Iwanan na natin ang mundo

[Riff]
   -----------------------------------------------
   -----------------------------------------------
   -----------------------------------------------
   -----------------------------------------------
   -----------------------------------------------
   -3/12\  Eto yung may pa slide bago riff ------


   -----------------------------------------------
   -3--3-3-3------------------------------------
   -------------0-3-2----------------------------
   ---------------------3--3-3-3--2-------------
   -----------------------------------3-----------
   -------------------------------------3-3-------

   -----------------------------------------------
   -3--3-3-3------------------------------------
   -------------0-3-2----------------0----------
   ---------------------3--2h3----3----3-2-----
   ------------------------------3---------------
   -----------------------------------------------

   -----------------------------------------------
   -3--3-3-3------------------------------------
   -------------0-3-2----------------------------
   ---------------------3--3-3-3--2-------------
   -----------------------------------3-----------
   -------------------------------------3-3-------

   -----------------------------------------------
   ---3--3-3-3-----------------------------------
   ---------------0-3-2--------------------------
   -----------------------------------------------
   -3----------------------------------------------
   -----------------------1------------------------

[Verse]
                       CM7-FM7
   Tayo na sa beach
                             CM7-FM7
   Tayo na't mag-swimming
                       CM7-FM7
   Bilisan mo na
                                        CM7     F - G
   Gusto kong mag-sunbathing
                         CM7-FM7
   Time to relax
                        CM7-FM7
   Time to go slow
                                      CM7-FM7
   Makinig kay pareng Bob
                              CM7     F - G
   At sasabihin nito

[Interlude]
   -----------------------------------------------
   -3--3-3-3------------------------------------
   -------------0-3-2----------------------------
   ---------------------3--3-3-3--2-------------
   -----------------------------------3-----------
   -------------------------------------3-3-------

   -----------------------------------------------
   -3--3-3-3------------------------------------
   -------------0-3-2----------------0----------
   ---------------------3--2h3----3----3-2-----
   ------------------------------3---------------
   -----------------------------------------------

   -----------------------------------------------
   -3--3-3-3------------------------------------
   -------------0-3-2----------------------------
   ---------------------3--3-3-3--2-------------
   -----------------------------------3-----------
   -------------------------------------3-3-------

   -----------------------------------------------
   ---3--3-3-3-----------------------------------
   ---------------0-3-2--------------------------
   -----------------------------------------------
   -3----------------------------------------------
   -----------------------1------------------------

[Verse]
                            CM7-FM7
   Pagsapit ng dilim
                                    CM7-FM7
   Lumalamig na ang hangin
                          CM7-FM7
   Sindihan mo na
                         CM7     F - G     
   Ang bonfire natin
                         CM7-FM7
   Time to relax
                        CM7-FM7
   Time to go slow
                           CM7-FM7   
   Maupo ka na lang
                                        CM7     F - G 
   At panoorin ang mundo

[Bridge]

          Em                                       Dm
   Kalimutan muna natin ang trabaho
            Em                            Dm
   Masisira na ang ating ulo
         G                                             Dm
   Kailan ka ba naman huling tumambay?
           G                                                      Dm  Em
   Patapusin ang walang hanggang paghihintay

[Interlude]
   -----------------------------------------------
   -3--3-3-3------------------------------------
   -------------0-3-2----------------------------
   ---------------------3--3-3-3--2-------------
   -----------------------------------3-----------
   -------------------------------------3-3-------

   -----------------------------------------------
   -3--3-3-3------------------------------------
   -------------0-3-2----------------0----------
   ---------------------3--2h3----3----3-2-----
   ------------------------------3---------------
   -----------------------------------------------

   -----------------------------------------------
   -3--3-3-3------------------------------------
   -------------0-3-2----------------------------
   ---------------------3--3-3-3--2-------------
   -----------------------------------3-----------
   -------------------------------------3-3-------

   -----------------------------------------------
   ---3--3-3-3-----------------------------------
   ---------------0-3-2--------------------------
   -----------------------------------------------
   -3----------------------------------------------
   -----------------------1------------------------

[Solo]
CM7 - FM7 [4X]

[Outro]

CM7                FM7
   Tayo na nga
CM7           FM7             Em              Am7
   Sino pa ba'ng hinihintay natin dito?
          Dm7        G7
   Naiinip na ako
CM7               FM7
   Sige na nga
CM7                  FM7              Em                  Am7
   Apakan mo na'ng silinyador ng auto mo
    Dm7                         G7
   Iwanan na natin ang mundo

   -----------------------------------------------
   -3--3-3-3------------------------------------
   -------------0-3-2----------------------------
   ---------------------3--3-3-3--2-------------
   -----------------------------------3-----------
   -------------------------------------3-3-------

   -----------------------------------------------
   -3--3-3-3------------------------------------
   -------------0-3-2----------------0----------
   ---------------------3--2h3----3----3-2-----
   ------------------------------3---------------
   -----------------------------------------------

   -----------------------------------------------
   -3--3-3-3------------------------------------
   -------------0-3-2----------------------------
   ---------------------3--3-3-3--2-------------
   -----------------------------------3-----------
   -------------------------------------3-3-------

   -----------------------------------------------
   ---3--3-3-3-----------------------------------
   ---------------0-3-2--------------------------
   -----------------------------------------------
   -3---------------------------------------------
   -----------------------1   then CM7 ----------

Please rate this tab

Please login to submit your ratings.