Please Don’t Touch My Birdie

Parokya Ni Edgar
Author:
Album:
Buruguduystunstugudunstuy (1997)
Difficulty:
Normal
Tuning:
Standard (E-A-D-G-B-E)
Capo:
No Capo
Date Published:
11 months ago
166 views

Chords

A-X02220E-022100F#m-244222D-XX0232F#sus4 - 244422C#m-X46654
[Intro]

   --------------0------------------------------
   -----2---3-----------------------0----------
   ---2---2---2---2------1----2------2--------
   ---------------------2----2----2-------------
   -0-------------------------------------------
   -------------------0--------------------------
    A                           E

   ---------------------------4------4h5-4-----
   ---------2-3--2h3p2-------5------------5---
   -------4--------------4--------4-----------4-
   -----4----------------------------------------
   ---4------------------------------------------
   -2----------------------0--------------------
    F#sus4                          E
   
   ---2-----2-----------------------------------
   -----3-----3---2---2------2------2----------
   -------2-----2--------2------2---------------
   -0-----------------------2------2------------
   ------------------0---------------------------
   ----------------------------------------------
    D                         A

   -------------------------- 0------------------
   ---------2-3--2h3p2---- 0------------------
   -------4--------------4-- 1------------------
   -----4--------------------2-------------------
   ---4----------------------2-------------------
   -2------------------------0-------------------
    F#sus4                              E

[Verse]

A                           E  
   Kapag ako'y nababato
F#m                   E  
   Pinaglalaruan ko ang birdie ko
F#m                         E
   Ang cute, cute naman kasi, yeah
       D                      E   
   Kaya ko siya binili
A                            E
   My birdie is my bestfriend
F#m                                E
   Ang dami naming maliligayang sandali
F#m                                    E
   Madalas ko siyang pinapakain ng birdseed
        D                                   E
   Mahal kita, oh birdie ko, 'wag kang lalayo

[Chorus]

A                            E
   Don't touch my birdie (Don't touch my birdie)
F#m                E
   Resist temptation please
F#m                           E
   You don't have to grab my birdie
D                 E  
   Just call it and it will come

[Solo]
A - E - F#m - E - F#m - E - D - E

[Verse]

A                                  E
   Ang birdie ko ay nakakatuwa
F#m                              E
   Parang cobra na mahilig mantuka
F#m                                E
   Kapag nilabas na mula sa kulungan
D                                  E
   Tuloy-tuloy na ang aming kasiyahan
A                                E
   'Di naman ako madamot talaga
F#m                                     E
   Ayaw ko lang na hinahawakan siya ng iba
F#m                         E
   Ang birdie ko ay medyo masungit
D                                            E
   Konting hawak lang siguradong magagalit
 
[Chorus]

A                            E
   Don't touch my birdie (Don't touch my birdie)
F#m                E
   Resist temptation please
F#m                           E
   You don't have to grab my birdie
D                 E  
   Just call it and it will come

[Interlude]
A - E - F#m - E
   It will come

[Bridge]

D                                  C#m
   'Wag ka sanang magalit sa akin
F#m                                     A
   T'wing ang birdie ko ay aking hihimasin
D                        C#m
   Sana'y maunawaan mo
F#m
   Mahal na mahal ko ang birdie ko
       E
   Pati mga itlog nito

[Chorus]

A                            E
   Don't touch my birdie (Don't touch my birdie)
F#m                E
   Resist temptation please
F#m                           E
   You don't have to grab my birdie
D                 E  
   Just call it and it will come

A                            E
   Don't touch my birdie (It will come)
F#m                E
   Resist temptation please
F#m                           E
   You don't have to grab my birdie
D                 E  
   Just call it and it will come

[Outro]
A - E - F#m - E - F#m - E - D - E - A

   It will come
   It will come
Please rate this tab

Please login to submit your ratings.