It’s Masarap

Parokya Ni Edgar
Author:
Album:
Borbolen (2021)
Difficulty:
Normal
Tuning:
Standard (E-A-D-G-B-E)
Capo:
No Capo
Date Published:
10 months ago
556 views

Chords

A-X02220E-022100F#m-244222D-XX0232G-320033Bm-X24432C#m-X46654
[Intro]
A - E - F#m - E - D - A   
   ------------------------------------------------------
   ---------------5-5------------------------7-7--------
   -6-6-4-4-6-6-----4-4-----4-4-7-7-6-6-------------
   ------------------------6-6---------------------------
   ------------------------------------------------------
   ------------------------------------------------------

   -4-4-5-5-7-7-9-9-5-5-7-7-5-5---------------------
   -----------------------------------7-7-5-5-----------
   ---------------------------------------------6-6------
   --------------------------------------------------7\--
   ------------------------------------------------------
   ------------------------------------------------------

[Verse]
        A                       E                          F#m                   E
   Mula Aparri hanggang doon sa 'min sa may Cubao
         A                            E                       F#m                E
   Walang maaring mas sumarap sa niluto kong sabaw
           A                   E            F#m               E
   May carrots at kamatis, sibuyas at konting patis

[Pre-Chorus]

            D                             A                             F#m                      E
   May beef bouillon, dalawang kahon, may lambing at may kiss

[Chorus]

            D             A          F#m               E
   Sina Tito at si Tita, namimigay ng pera
            D                        A                         F#m                 E
   Kapalit ang isang baldeng sabaw at dalawang kutsara

[Verse]

        A                           E                     F#m               E
   Buong bansa ay makakatikim ng specialty'ng ito
      A                E              F#m              E
   Niluto at hinain para lamang sa inyo oh ohhh
           A                          E                   F#m                     E
   Sigurado ako na maaadik kayo kapag natikman n'yo

[Pre-Chorus]

        D                           A                 F#m                  E
   Mapapa-"Mmm" ka sa amoy at lasang Pampinoy

[Chorus]

            D                       A            F#m                   E
   Sina Chito, Vince at Buwi, kumain nang madami
        D                    A                    E  
   Tuwing hihigop ng sabaw, sumisigaw, "It's masarap!"

[Interlude]
A - Bm - Cm - D [4X]
A - G - F#m [4X]
E

[Verse]

                          A                       E                        F#m                     E
   Nya (nya), mula Aparri hanggang doon sa 'min sa may Cubao
         A                            E                        F#m               E
   Walang maaring mas sumarap sa niluto kong saba-a-aw
          A                           E                   F#m                      E
   Sigurado ako na maaadik kayo kapag natikman n'yo

[Outro]

       D                     A                    E       
   Tuwing hihigop ng sabaw, sumisigaw, 
                    A-E-F#m-E-D----A-E-F#m-E-D-A---
   "It's masarap!"
Please rate this tab

Please login to submit your ratings.