Sing

Parokya Ni Edgar
Author:
Album:
Pogi Years Old (2016)
Difficulty:
Difficult
Tuning:
Standard (E-A-D-G-B-E)
Capo:
No Capo
Date Published:
1 year ago
759 views

Chords

Em-022000G-320033D-XX0232Dsus4 - XX0233Am-X02210C-X32010Cadd9 - X32033Bb-688766Eb-X68886Cm-X35543F-133211F#-244322
[Intro]
Em - D - Cadd9 - D [3X]
Am

[Note] Yung Cadd9 na gagamitin dito sa intro ay X32030
   ---------0-12p10-----------0---------------------------
   -13p12-------------13p12----13p12---13/15---[3X]--
   ----------------------------------------------------------
   ----------------------------------------------------------
   ----------------------------------------------------------
   ----------------------------------------------------------

   ----------------------------------------------------------
   -12h13p12---10--12p10-8---10-----------------------
   ------------------------------------9---------------------
   ----------------------------------------------------------
   ----------------------------------------------------------
   ----------------------------------------------------------

[Verse] 

      Em                          D-Cadd9-D
   Speak and be heard
                                Em-D-Cadd9-D
   Or don't and regret
         Em              D      Cadd9
   It's easier said than done
   D                         Em-D-Cadd9-D
   But things left unsaid
              Em                     D   Cadd9-D
   They rot and they fester inside you
      Em           D  Cadd9
   Turn you into someone
   D             Em                     D-Cadd9
   You despise all together
         D                      Em-D-Cadd9-D
   So, please don't you fret

[Pre-Chorus]
[Note] Ito gamitin niyong Cadd9 = X32030

                  Am-Cadd9
   Because I have a solution
                Am 
   This is just a suggestion
              Cadd9      D-Dsus4-D
   But it works for me

[Chorus]
[Note] Ito gamitin niyong Cadd9 = X32030

            G 
   Just sing
                    Cadd9  
   Like you never have before
                  Am      
   Let your voice blow down the door
               C                             Cadd9
   And then, you'll be heard
            G
   Just sing
                    Cadd9
   Like you never have before
                  Am
   Let your voice blow down the door
              C
   And then, you'll be better
                      D
   Because then, you'll be heard

[Interlude]
Em - D - Cadd9 - D [3X]
Am
[Note] Ito gamitin niyong Cadd9 = X32030

[Guitar 2] Lower
   ----------------------------------------------------------
   ----------------------------------------------------------
   ----------------------------------------------------------
   ----------2-0-----------------0--------------------------
   ---3-2----------3-2---3-2--------[3X]------------------
   -0-----0------0-----0------0----------------------------

   ----------------------------------------------------------
   ----------------------------------------------------------
   ----------------------------------------------------------
   ----------------------------------------------------------
   -2h3-2-0---2-0------0----------------------------------
   ------------------3------0-------------------------------

[Guitar 1] Octave
   -----------------12--------------------------------------
   -----13-12---------15----13-12-----13-12----15-----
   ------------------------------------------------------[3X]
   -14---------14---------14--------14--------14---------
   ----------------------------------------------------------
   ----------------------------------------------------------

   ----------------------------------------------------------
   -12h13-12-------12-------------------------------------
   -------------14-------14-12---14-----------------------
   ------------------------------------14-------------------
   ----------------------------------------------------------
   ----------------------------------------------------------

[Verse]

           Em                           D-Cadd9-D
   The world may be cruel
          Em                           D      Cadd9-D
   But that doesn't mean everybody is too
           Em                    D-Cadd9-D
   I'm sure that you'll see
                Em                       D     Cadd9              D
   That it ain't half as bad as it might seem to be

[Pre-Chorus]

                      Am      
   Though at times
                       C
   No matter how hard you try
                Am
   And it still makes you cry
                    C         D
   Take the time to breathe

[Chorus]
[Note] Ito gamitin niyong Cadd9 = X32030

             G 
   And sing
                    Cadd9  
   Like you never have before
                  Am      
   Let your voice blow down the door
               C                             Cadd9
   And then, you'll be heard
            G
   Just sing
                    Cadd9
   Like you never have before
                  Am
   Let your voice blow down the door
              C
   And then, you'll be better
                      D
   Because then, you'll be heard

[Interlude]
Change Key ng chorus from G -> Bb tapos
babalik sa key of G

Bb-Eb-Cm-Eb---F---F-F#

[Chorus]
[Note] Ito gamitin niyong Cadd9 = X32030

   G
   Sing (close your eyes and sing)
                     Cadd9
   Like you never have before (forget everything)
                    Am
   Let your voice blow down the door (the entire universe)
              C                              Cadd9
   And then, you'll be heard (is waiting)
          G
   Just sing (close your eyes and sing)
                     Cadd9
   Like you never have before (forget everything)
                   Am
   Let your voice blow down the door (the entire universe)
               C                              Cadd9
   And then, you'll be better (is waiting)
            G
   Just sing (close your eyes and sing)
                    Cadd9
   Like you never have before (forget everything)
                    Am
   Let your voice blow down the door (the entire universe)
              C                              Cadd9
   And then, you'll be heard (is waiting)
            G
   Just sing (close your eyes and sing)
                    Cadd9
   Like you never have before (forget everything)
                   Am
   Let your voice blow down the door (the entire universe)
              C                              Cadd9
   And then, you'll be better (is waiting)

[Outro]

G - Cadd9 - Am - C - D -Dsus4 - G
Please rate this tab

Please login to submit your ratings.