Wala Lang Yun

Parokya Ni Edgar
Author:
Album:
Pogi Years Old (2016)
Difficulty:
Normal
Tuning:
Standard (E-A-D-G-B-E)
Capo:
No Capo
Date Published:
9 months ago
259 views

Chords

G-320033D-XX0232Am-X02210Em-022000
[Intro]
[Note] Ulit ulit lang itong chords hanggang matapos
G - D - Am - Em - D [2X] 
[Bass]
   ---------------------------------------------------------
   ---------------------------------------------------------
   ---------------------------------------------------------
   ---------------------------------------------------------
   -10/12---10--------------------------------------------
   --------------12-10\------------------------------------

[Lead]
   ------------------------10-------------------7---------
   -12p10-8h10-12p10-------12p10---8h10---8-------
   ---------------------------------------------------------
   ---------------------------------------------------------
   ---------------------------------------------------------
   ---------------------------------------------------------

   ----------7---------------------------------------------
   ---8h10----10---8-----8h10-7------------------------
   -9--------------------9---------------------------------
   ---------------------------------------------------------
   ---------------------------------------------------------
   ---------------------------------------------------------

   ----------------7-----10---------------------10-----10/12-
   -12p10-8h10----10-------12p10---10/12-----12---------
   --------------------------------------------------------------
   -------------------------------------------------------------
   -------------------------------------------------------------
   ------------------------------------------------------------

   -15p12-15/17---15p12---12\10-------------------------------
   --------------------------------------12\10---8h10b12r10---8-
   ------------------------------------------------------------------
   ------------------------------------------------------------------
   ------------------------------------------------------------------
   ------------------------------------------------------------------

[Verse]

                G   
   Nahuli na naman ako, mayro'n ibang ka-text
                 D 
   Pero pangako sa iyo, wala akong ibang ka-sex
              Am
   Sapagkat 'di ko kayang mawala ka
              Em                         D
   At hindi ko rin alam at ako'y nagtataka
                     G
   Kung bakit parang hindi ko mapigilang magpa-cute
D
   Kahit alam ko na wala lang, basta cute
Am
   Parang kailangan kong subukan upang malaman
Em                                     D
   Kung kaya ko pa ba at kung hanggang saan
G
   Tandaan mo lang sana
          D
   Na ikaw lang ang mahal ko at wala nang iba
                Am                                                                  Em-D
   At kahit na alam ko na hindi naman dapat gano'n

[Chorus]
                     G                                  D
   Wala lang 'yun, 'wag kang mag-alala
                     Am               Em          D
   Wala lang 'yun, ikaw lang talaga
                     G                     D
   Wala lang 'yun, parang awa mo na
                     Am  Em-D
   Wala lang 'yun

[Interlude]
G - D - Am - Em - D

[Verse]

       G
   Siguro hindi mo maiintindihan
           D
   Na likas sa lalaki ang kanyang kalokohan
Am             
   Pero hanggang du'n lang ako
Em                                D
   Wala naman akong balak magloko
G
   Konting landian lang naman
D                                    Am
   Hindi ko papaabutin sa kung ano'ng iniisip mo
            Em                              D
   Sige na, please lang, patawarin mo ako
           G
   And please, tandaan mo lang sana
          D
   Na ikaw lang ang mahal ko at wala nang iba
                 Am                                                               Em-D
   At kahit na alam ko na hindi naman dapat gano'n

[Chorus]
                     G                                  D
   Wala lang 'yun, 'wag kang mag-alala
                     Am               Em          D
   Wala lang 'yun, ikaw lang talaga
                     G                     D
   Wala lang 'yun, parang awa mo na
                     Am  Em-D
   Wala lang 'yun

[Interlude]
G - D - Am - Em - D

[Verse]

                  G
   Kung wala lang pala 'yun, bakit ko ginagawa?
              D
   'Di ko ba naisip na baka nasasaktan kita?
            Am
   Sa mga kalokohan na wala lang
                  Em                                          D
   Du'n pa lang, mayro'n na 'kong kasalanan
                    G
   Kung talagang mahal kita, dapat kaya kong pigilan
                   D
   Ang pakikipaglandian sa mga kababaihan
              Am
   Na magiging dahilan ng kasinungalingan
   Em                                    D
   Dahil mas mahalaga sa akin ang pag-ibig mo
G          
   Mapanindigan ko sana
          D
   Na ikaw lang ang mahal ko at wala nang iba
            Am                                                                Em-D
   At pangako sa iyo, mula noon hanggang ngayon

[Chorus]
                     G                                  D
   Wala lang 'yun, 'wag kang mag-alala
                     Am               Em          D
   Wala lang 'yun, ikaw lang talaga
                     G                     D
   Wala lang 'yun, parang awa mo na
                     Am  Em-D-G---
   Wala lang 'yun
   
Please rate this tab

Please login to submit your ratings.