Lastikman

Parokya Ni Edgar
Author:
Album:
Solid (2007)
Difficulty:
Normal
Tuning:
Standard (E-A-D-G-B-E)
Capo:
No Capo
Date Published:
9 months ago
140 views

Chords

Eb-X68886Adim - 5675XXBb-688766Cm-X35543Dm-X57765F-133211Gm-355333
[Intro]
Gm - Eb [4X]

[Note] Kung di maayos itsura ng tabs sa phone niyo punta 
lang kayo sa settings tapos check niyo yung desktop mode
   -----------------------------------------------------
   -----------------------------------------------------
   ------3-2-3-2-3-2--[4X]---------------------------
   -----------------------------------------------------
   -----------------------------------------------------
   -15\------------------------------------------------

   -----------------------------------------------------
   -----------------------------------------------------
   -----------------------------------------------------
   -5-5-5-3-5-3---5-5-5-3-5-3----------------------
   -----------------------------------------------------
   -----------------------------------------------------

   -----------------------------------------------------
   -----------------------------------------------------
   -----------------------------------------------------
   -5-5-5-3-5-3---3----------------------------------
   ---------------5---5-3-1-3/5-----------------------
   --------------------------------3-2-3---------------
[Verse]

Gm                                                     Eb
   Handa siyang dumaan sa butas ng karayom
Gm                                             Eb
   Lahat ay gagawin maligtas lamang tayo
Gm                                                   Eb
   Mga pagsubok ay kanyang handang labanan
Gm                                   Eb
   Sa ngalan ng mga kailangan niyang tulungan

[Chorus]

Gm                         Eb
   Walang susuko, walang susuko
Gm                                          Eb
   Habang buhay, buhay din ang kanyang pangako
Gm                         Eb
   Walang susuko, walang susuko
Gm                                 Eb
   Handang ialay kahit na kanyang dugo wag lang lahat

[Interlude]
Gm - Eb [2X]

[Verse]

Gm                                              Eb
   Kapag salbahe ka kailangan mong mag ingat
Gm                                                  Eb
   Pagkat abot kaniya kapag siya ay umunat
Gm                                             Eb
   Mga kalaban ay kanyang pupulupotan
Gm                                   Eb
   Sa ngalan ng mga kailangan niyang tulungan

[Interlude]
Gm - Adim - Bb - Cm - Dm - F

[Chorus]

Gm                      Eb
   Walang tatalo, walang tatalo
Gm                                         Eb
   Sa taglay niyang lakas, likas sa kanyang puso
Gm                         Eb
   Walang atrasan, walang atrasan
Gm                              Eb
   Mga kalaban ay hindi niya uurungan

[Solo]

Gm               Eb
   Lastikman
Gm               Eb
   Lastikman
Gm               Eb
   Lastikman
Gm               Eb
   Lastikman

[Chorus]

Gm                      Eb
   Walang tatalo, walang tatalo
Gm                                         Eb
   Sa taglay niyang lakas, likas sa kanyang puso
Gm                         Eb
   Walang atrasan, walang atrasan
Gm                               Eb
   Mga kalaban laban sa kapangyarihan
             Gm
   Lastikman
Please rate this tab

Please login to submit your ratings.