The Yes Yes Show

Parokya Ni Edgar
Author:
Album:
Bigotilyo (2003)
Difficulty:
Normal
Tuning:
Standard (E-A-D-G-B-E)
Capo:
No Capo
Date Published:
9 months ago
181 views

Chords

Em-X79987Am-577555
[Intro]
Em - Am
Ulit ulit lang yung chords hanggang matapos ang kanta


[Note] Kung di maayos itsura ng tabs sa phone niyo punta 
lang kayo sa settings tapos check niyo yung desktop mode
   -2h3-  3-3-2h3--3-3-2h3--  3/8-8-7---8-7-----------
   -3-----3-3-3---- 3-3-3------3/8-8--- 8-----8--------
   ----------------------------------------9---------------
   --------------------------------------------------------
   --------------------------------------------------------
   --------------------------------------------------------


   -2h3-  3-3-2h3--3-3-2h3--  3/8-8-7---8-7-----------
   -3-----3-3-3---- 3-3-3------3/8-8--- 8-----8--------
   ----------------------------------------9---------------
   --------------------------------------------------------
   --------------------------------------------------------
   --------------------------------------------------------


   -----7--------------15---------------7-----------5----
   ---8---8--------13-----13--------8----8------5------
   -7-------7--12-------------12--7--------7--5--------
   --------------------------------------------------------
   --------------------------------------------------------
   --------------------------------------------------------
   You better get ready for a big surprise
   You think it's almost over, but it's only on the rise
   Mental message via visual contact
   Louder than any other sexual soundtrack


[Verse]
Em - Am

   -2h3-  3-3-2h3--3-3-2h3--  3/8-8-7---8-7-----------
   -3-----3-3-3---- 3-3-3------3/8-8--- 8-----8--------
   ----------------------------------------9---------------
   --------------------------------------------------------
   --------------------------------------------------------
   --------------------------------------------------------
   More margarita for my cute señorita
   Triple the tequila just to heighten up the flavor



   -2h3-  3-3-2h3--3-3-2h3-----------------------------
   -3-----3-3-3---- 3-3-3----- 4/5-5-5-4/5-5-5-4/5----
   ------------------------------4/5-5-5-4/5-5-5-4/5----
   --------------------------------------------------------
   --------------------------------------------------------
   --------------------------------------------------------
   Chuggin' down on my J&B
   While checkin' out the parts of my dick's anatomy



   -2h3-  3-3-2h3--3-3-2h3--  3/8-8-7--------7--------
   -3-----3-3-3---- 3-3-3------3/8-8---8----8----------
   ------------------------------------------9------------
   --------------------------------------------------------
   --------------------------------------------------------
   --------------------------------------------------------
   Forget the brain, forget the personality
   What I'm after is your effects on my gravity



   -2h3-  3-3-2h3--3-3-2h3--  3/8-8-7-----------------
   -3-----3-3-3---- 3-3-3------3/8-8---8---------------
   ------------------------------------------9-7-5-7-----
   --------------------------------------------------------
   --------------------------------------------------------
   --------------------------------------------------------
   Like Trinity, flying high with her kicks
   And controlling the game with my heavy duty joystick


[Chorus]
Em - Am

   -----7--------------15---------------7-----------5----
   ---8---8--------13-----13--------8----8------5------
   -7-------7--12-------------12--7--------7--5--------
   --------------------------------------------------------
   --------------------------------------------------------
   --------------------------------------------------------
   You better get ready for a big surprise
   You think it's almost over, but it's only on the rise
   Mental message via visual contact
   Louder than any other sexual soundtrack


[Verse]
Em - Am

   -2h3-  3-3-2h3--3-3-2h3--  3/8-8-7---8-7-----------
   -3-----3-3-3---- 3-3-3------3/8-8--- 8-----8--------
   ----------------------------------------9---------------
   --------------------------------------------------------
   --------------------------------------------------------
   --------------------------------------------------------
   Flip the tip as we skip to the next trip
   Flashin' some cash and some rockstar bullshit



   -2h3-  3-3-2h3--3-3-2h3-----------------------------
   -3-----3-3-3---- 3-3-3----- 4/5-5-5-4/5-5-5-4/5----
   ------------------------------4/5-5-5-4/5-5-5-4/5----
   --------------------------------------------------------
   --------------------------------------------------------
   --------------------------------------------------------
   Goin' in for the thrill, movin' in for the kill
   I got us a room in a fancy hotel



   -2h3-  3-3-2h3--3-3-2h3--  3/8-8-7--------7--------
   -3-----3-3-3---- 3-3-3------3/8-8---8----8----------
   ------------------------------------------9------------
   --------------------------------------------------------
   --------------------------------------------------------
   --------------------------------------------------------
   And we've got everything we need
   A big bag of money, a bigger bag of weed



   -2h3-  3-3-2h3--3-3-2h3--  3/8-8-------------------
   -3-----3-3-3---- 3-3-3------3/8-8-------------------
   --------------------------------------------------------
   --------------------------------------------------------
   --------------------------------------------------------
   --------------------------------------------------------
   And try to impress as we start to undress
   Stop the press, we need to get this


[Chorus]
Em - Am

   -----7--------------15---------------7-----------5----
   ---8---8--------13-----13--------8----8------5------
   -7-------7--12-------------12--7--------7--5--------
   --------------------------------------------------------
   --------------------------------------------------------
   --------------------------------------------------------
   You better get ready for a big surprise
   You think it's almost over, but it's only on the rise
   Mental message via visual contact
   Louder than any other sexual soundtrack


[Verse]
Em - Am

   -2h3-  3-3-2h3--3-3-2h3--  3/8-8-7---8-7-----------
   -3-----3-3-3---- 3-3-3------3/8-8--- 8-----8 pause--
   ----------------------------------------9---------------
   --------------------------------------------------------
   --------------------------------------------------------
   --------------------------------------------------------
   I'd like to keep it going 'cause I got it going on
   But it's Vinci's turn on the microphone, so...



   -2h3-  3-3-2h3--3-3-2h3--  3/8-8-7---8-7-----------
   -3-----3-3-3---- 3-3-3------3/8-8--- 8-----8--------
   ----------------------------------------9---------------
   --------------------------------------------------------
   --------------------------------------------------------
   --------------------------------------------------------
   Ehem, my name is Vinci, and I am neat
   I love pretty girls, and I love to eat



   -2h3-  3-3-2h3--3-3-2h3-----------------------------
   -3-----3-3-3---- 3-3-3----- 4/5-5-5-4/5-5-5-4/5----
   ------------------------------4/5-5-5-4/5-5-5-4/5----
   --------------------------------------------------------
   --------------------------------------------------------
   --------------------------------------------------------
   I made this rap from my mind
   And I am very, very kind



   -2h3-  3-3-2h3--3-3-2h3--  3/8-8-7--------7--------
   -3-----3-3-3---- 3-3-3------3/8-8---8----8----------
   ------------------------------------------9------------
   --------------------------------------------------------
   --------------------------------------------------------
   --------------------------------------------------------
   I like to drive fast in fancy cars
   And chicks dig me like chocolate bars



   -2h3-  3-3-2h3--3-3-2h3-----------------------------
   -3-----3-3-3---- 3-3-3----- 4/5-5-5-4/5-5-5-4/5----
   ------------------------------4/5-5-5-4/5-5-5-4/5----
   --------------------------------------------------------
   --------------------------------------------------------
   --------------------------------------------------------
   They say I'm bad, but I am good
   So shut up now, and eat some food



   -2h3-  3-3-2h3--3-3-2h3--  3/8-8-7---8-7-----------
   -3-----3-3-3---- 3-3-3------3/8-8--- 8-----8--------
   ----------------------------------------9---------------
   --------------------------------------------------------
   --------------------------------------------------------
   --------------------------------------------------------
   Tsong, ano ba'ng problema mo? Ayusin mo naman
   Lagyan mo naman ng tono, para kang nangangatwiran



   -2h3-  3-3-2h3--3-3-2h3-----------------------------
   -3-----3-3-3---- 3-3-3----- 4/5-5-5-4/5-5-5-4/5----
   ------------------------------4/5-5-5-4/5-5-5-4/5----
   --------------------------------------------------------
   --------------------------------------------------------
   --------------------------------------------------------
   Ano ba'ng inaatupag mo sa bago mong apartment?
   Sampung taon ka nang sikat, wala ka pa rin bang talent?



   -2h3-  3-3-2h3--3-3-2h3--  3/8-8-7---8-7-----------
   -3-----3-3-3---- 3-3-3------3/8-8--- 8-----8--------
   ----------------------------------------9---------------
   --------------------------------------------------------
   --------------------------------------------------------
   --------------------------------------------------------
   Tsong, ano ba'ng sinasabi mo?
   Mali ang sinasabi mo



   -2h3-  3-3-2h3--3-3-2h3-----------------------------
   -3-----3-3-3---- 3-3-3----- 4/5-5-5-4/5-5-5-4/5----
   ------------------------------4/5-5-5-4/5-5-5-4/5----
   --------------------------------------------------------
   --------------------------------------------------------
   --------------------------------------------------------
   Magaling akong kumanta
   Alam mo ba 'yung "Picha Pie", hmm?



   -2h3-  3-3-2h3--3-3-2h3--  3/8-8-7--------7--------
   -3-----3-3-3---- 3-3-3------3/8-8---8----8----------
   ------------------------------------------9------------
   --------------------------------------------------------
   --------------------------------------------------------
   --------------------------------------------------------
   Kung sa bagay, mahusay nga naman 'yung "Picha Pie"
   Gamit ang boses mong pamatay
   Nilagyan mo ng kulay ang kanta



   -2h3-  3-3-2h3--3-3-2h3-----------------------------
   -3-----3-3-3---- 3-3-3----- 4/5-5-5-4/5-5-5-4/5----
   ------------------------------4/5-5-5-4/5-5-5-4/5----
   --------------------------------------------------------
   --------------------------------------------------------
   --------------------------------------------------------
   'Di ba, kahit ikaw ang gumawa
   Alam nating mas okay kung ako 'yung kumanta?



   -2h3-  3-3-2h3--3-3-2h3--  3/8-8-7---8-7-----------
   -3-----3-3-3---- 3-3-3------3/8-8--- 8-----8--------
   ----------------------------------------9---------------
   --------------------------------------------------------
   --------------------------------------------------------
   --------------------------------------------------------
   Tsong naman, please lang, 'wag ka nang magyabang
   At alam mo naman na pang-back up ka lang



   -2h3-  3-3-2h3--3-3-2h3-----------------------------
   -3-----3-3-3---- 3-3-3----1--pause-----------------
   --------------------------------------------------------
   --------------------------------------------------------
   --------------------------------------------------------
   --------------------------------------------------------
   At ilan na ba ang talagang nagawa mong kanta?
   Ilan? Wala (eh, ano ngayon?)


[Chorus]
Em - Am

   -----7--------------15---------------7-----------5----
   ---8---8--------13-----13--------8----8------5------
   -7-------7--12-------------12--7--------7--5--------
   --------------------------------------------------------
   --------------------------------------------------------
   --------------------------------------------------------
Alam naman nating lahat na si Vinci naman talaga dapat
Ang vocalist ng Parokya band, ng Parokya ni Edgar

[Verse]
Em - Am

   ------Pause------------------ 8-7----8-7-------------
   -------------------------------8--- 8------8-----------
   ------------------------------------9------------------
   --------------------------------------------------------
   --------------------------------------------------------
   --------------------------------------------------------
   Teka lang, one minute, pwede bang pakiulit?
   Maaaring may lamang ka sa paligo



   -2h3-  3-3-2h3--3-3-2h3-----------------------------
   -3-----3-3-3---- 3-3-3----- 4/5-5-5-4/5-5-5-4/5----
   ------------------------------4/5-5-5-4/5-5-5-4/5----
   --------------------------------------------------------
   --------------------------------------------------------
   --------------------------------------------------------
   Subalit bakit mo naman nasabi na ikaw ang nararapat
   Eh, ni isang kanta man lang, wala kang naisulat?



   -2h3-  3-3-2h3--3-3-2h3--  3/8-8-7--------7--------
   -3-----3-3-3---- 3-3-3------3/8-8---8----8----------
   ------------------------------------------9------------
   --------------------------------------------------------
   --------------------------------------------------------
   --------------------------------------------------------
   Eh, ba't ibang singers naman, kahit 'di n'ya sinulat
   Ang kinakanta nilang kanta ay sobra kung sumikat?



   -2h3-  3-3-2h3--3-3-2h3-----------------------------
   -3-----3-3-3---- 3-3-3----- 4/5-5-5-4/5-5-5-4/5----
   ------------------------------4/5-5-5-4/5-5-5-4/5----
   --------------------------------------------------------
   --------------------------------------------------------
   --------------------------------------------------------
   Tulad ko, at ni Quino, at ni Benedict Aquino
   Na wala na yatang mas sisikat pa kahit na sino



   -2h3-  3-3-2h3--3-3-2h3--  3/8-8-7---8-7-----------
   -3-----3-3-3---- 3-3-3------3/8-8--- 8-----8--------
   ----------------------------------------9---------------
   --------------------------------------------------------
   --------------------------------------------------------
   --------------------------------------------------------
   Ewan ko, sandali, 'wag ka ngang makulit
   Kung ayaw mong masipa sa mukha nang malupit



   -2h3-  3-3-2h3--3-3-2h3-----------------------------
   -3-----3-3-3---- 3-3-3----- 4/5-5-5-4/5-5-5-4/5----
   ------------------------------4/5-5-5-4/5-5-5-4/5----
   --------------------------------------------------------
   --------------------------------------------------------
   --------------------------------------------------------
   Baka makatikim ka ng sarsuwela de kamao
   Na sinlisto el de gato sa gulpihan de con todo



   -2h3-  3-3-2h3--3-3-2h3--  3/8-8-7---8-7-----------
   -3-----3-3-3---- 3-3-3------3/8-8--- 8-----8--------
   ----------------------------------------9---------------
   --------------------------------------------------------
   --------------------------------------------------------
   --------------------------------------------------------
   Talaga, 'di nga, tatawa na ba ako?
   Hindi porke't Koreano ka, magaling kang mag-taekwondo



   -2h3-  3-3-2h3--3-3-2h3-----------------------------
   -3-----3-3-3---- 3-3-3----- 4/5-5-5-4/5-5-5-4/5----
   ------------------------------4/5-5-5-4/5-5-5-4/5----
   --------------------------------------------------------
   --------------------------------------------------------
   --------------------------------------------------------
   'Wag kang mag-aangas sa lalaking may balbas
   Kami 'yung mga tipo na hindi umaatras


[Bridge]
Em - Am

   -----7------------5-----------7-----------5-----------
   ---8---8-------5----5------8---8------5----5---------
   -7-------7---5--------5--7-------7--5--------5-------
   --------------------------------------------------------
   --------------------------------------------------------
   --------------------------------------------------------
   Sandali lang, 'wag muna kayong maglaban
   Bago kayo magsuntukan, ba't 'di n'yo muna pag-usapan ang 'di maunawaan?



   -----7------------5-----------7-----------5-----------
   ---8---8-------5----5------8---8------5----5---------
   -7-------7---5--------5--7-------7--5--------5-------
   --------------------------------------------------------
   --------------------------------------------------------
   --------------------------------------------------------
   Sige na, kiss na, peace na, please
   Pambayad mo ng jeepney, kulang pa ng dyis
   Kung ayaw mong mangyari ang nangyari sa iba
   Matuto tayo kung paano magpakumbaba
   'Wag nating kalimutan kung saan nagsimula

[Chorus]
Em - Am

   -----7------------8-----------7-----------5-----------
   ---8---8-------8----8------8---8------5----5---------
   -7-------7---5--------5--7-------7--5--------5-------
   --------------------------------------------------------
   --------------------------------------------------------
   --------------------------------------------------------
   Alam naman nating lahat na mahal natin ang isa't isa't
   Walang iwanan sa Parokya band, sa Parokya ni Edgar


[Outro] [4X]
Em - Am

   -2h3-  3-3-2h3--3-3-2h3--  3/8-8-7---8-7-----------
   -3-----3-3-3---- 3-3-3------3/8-8--- 8-----8--------
   ----------------------------------------9---------------
   --------------------------------------------------------
   --------------------------------------------------------
   --------------------------------------------------------
   Band, band
   Uh, 'di ko alam kung paano tatapusin 'yung kanta
   Kaya ganito na lang, bigla na lang mawawala
Please rate this tab

Please login to submit your ratings.