Eman

Parokya Ni Edgar
Author:
Album:
Solid (2007)
Difficulty:
Normal
Tuning:
Standard (E-A-D-G-B-E)
Capo:
No Capo
Date Published:
9 months ago
126 views

Chords

Bm-X24432A-X02220G-320033F#-244322D-XX0232
[Intro]
Bm - A - G - F#

[Note] Kung di maayos itsura ng tabs sa phone niyo punta 
lang kayo sa settings tapos check niyo yung desktop mode

   ---2-0-------------------------------------------------------
   -0-----3-2h3---3/10-10-10-10-8-7------------------------
   ---------------------------------------6-7-6h7\2-2----------
   -----------------------------------------------------2--------
   -------------------------------------------------------2/4-0-
   -------------------------------------------------------------

   --------------------------------------------------------------
   --------------------------------8--8/10-8--7h8p7\5/7------
   ----------------------4--5--7--------------------------------
   -------------5---2-5-----------------------------------------
   -2-4--5--4--------------------------------------------------
   --------------------------------------------------------------

   --------------------------------------------------------------
   -3/5--3-2/3/5------------------------------------------------
   ----------------4---------------------------------------------
   --------------------------------------------------------------
   --------------------------------------------------------------
   --------------------------------------------------------------

[Chorus]

   Bm     A 
   Eman ewan
                         G 
   Lasing na naman
                        F#
   Ang puso't isipan

[Interlude]
Bm - A - G - F#

[Verse]

G                                                                    D
   Kapag may problema nandiyan lang si Eman
        A                                              Bm
   Maaasahan lalo na 'pag may inuman
        Bm                                                        G
   Kapag kay bigat na ng suliranin mo sa buhay
        D                                                                    F#
   Sagot niya'y isang bote ng alak na lamang idaan

[Chorus]

   Bm     A 
   Eman ewan
                         G 
   Lasing na naman
                        F#
   Ang puso't isipan

[Interlude]
Bm - A - G - F#

[Verse]

G                                                  D
   Sa araw-araw parating may toma
                A                                                      Bm
   Sa lungkot at ligaya hirap man o sa ginhawa
              Bm                                                   G
   Sa gitna ng gulo at ng pagkabigo ay karamay
         D                                                          F#
   Sa pag-istambay at sa paglasap ng tagumpay

[Chorus]

   Bm     A
   Eman ewan
                         G
   Lasing na naman
                        F#
   Ang puso't isipan

[Solo]
G - D - A - F# 
G - D - A - Bm

[Verse]

          G                                                D
   Ngunit ngayon siya naman ang may problema
            A                                                           F#
   Sa kakainom ang atay niya ay may tama na
            G                             D
   Ang aking payo dito sa kaibigan ko
    A                                                       Bm
   Iwanan ang alak kumain na lang tayo

[Chorus]

   Bm     A
   Eman ewan
                         G                                 F#
   Nagising na ang kanyang diwa't isipan
   Bm     A
   Eman ewan
                         G                                         F#
   Sa inuman nandyan namumulutan na lamang

[Outro]
Bm - A - G - F#
Bm
Please rate this tab

Please login to submit your ratings.