Barkada

Parokya Ni Edgar
Author:
Album:
Gulong Itlog Gulong (1999)
Difficulty:
Normal
Tuning:
Standard (E-A-D-G-B-E)
Capo:
No Capo
Date Published:
11 months ago
135 views

Chords

A-X02220E-022100F#m-244222D-XX0232
[Intro]
   -----------------------------------------------
   -----------------------------------------------
   -----------------------------------------------
   -7-6-4----------------------------------------
   --------7-5-4---4h5-4-----------------------
   ---------------5-------------------------------

[Verse]

A                       F#m   D                    E  
   Heto na ang mga officials ng barkada
A                   F#m             D                        E
   Kanya-kanyang kalokohan ang bawat bida
A                    F#m
   Merong medyo praning
         D                      E
   Meron din ang antukin
A                       F#m     D                    E
   Kumpleto sa rekado ang barkada namin
A                F#m             D              E
   Pinagtagpo-tagpo kami ng tadhana
A              F#m                 D              E
   Kahit pinanggalingan namin ay iba iba
A                    F#m              D                  E
   Walang pakialam kung san mapadaan
A                        F#m                 D            E
   Basta't sabay-sabay kaming nagtatawanan

[Refrain]

D                 E                         
   Basta nandiyan ang bawat
   A                F#m
   Miyembro ng tropa (bawat miyembro ng tropa)
D                  E                 A                  F#m
   Ang kalokohan ay hindi mawawala (di mawawala)
D                  E                  A        F#m
   Hindi na dapat pinag iisipan pa
       D                  E                      A-A-A-A
   Lahat tayo ay dapat magsaya

[Verse]

A                     F#m                D                   E 
   Musmos palang magkakasama na kami
A                  F#m              D           E
   Nagkasundo kahit iba't ibang ugali
A                       F#m         D                           E 
   Ganyan lang talaga saming munting barkada
A                F#m            D                 E 
   Kasa-kasama mo sa hirap at ginhawa
A                F#m              D                  E 
   Magkasabay mula sa pagsikat ng araw
A                F#m                     D                  E 
   Magkasama hanggang daigdig ay magunaw
A                   F#m       D                     E 
   Sa dami-dami ng aming napagdaanan
A                  F#m       D                     E 
   Walang tatalo sa aming pinagsamahan

[Refrain]

D                 E                         
   Basta nandiyan ang bawat
   A                F#m
   Miyembro ng tropa (bawat miyembro ng tropa)
D                  E                 A                  F#m
   Ang kalokohan ay hindi mawawala (di mawawala)
D                  E                  A        F#m
   Hindi na dapat pinag iisipan pa
       D                  E                      A-A-A-A
   Lahat tayo ay dapat magsaya

[Outro]

   A                F#m
   Di na yata magsasawa
   D                        E
   Sa 'ming pagsasamasama
   A                   F#m
   At sa aming barkada
      D                    E                 A
   Asahan ng hindi mawawala
                   F#m               D 
   Ang kalokohan at ang walang
            E                   A
   Tigil na tawanan sapagkat
           F#m              D                   E
   Ang bawat kabarkada namin ay sadyang ganyan

   -----------------------------------------------
   -----------------------------------------------
   -----------------------------------------------
   -7-6-4----------------------------------------
   --------7-5-4---4h5-4-----------------------
   ---------------5-------------------------------

   -----------------------------------------------
   -----------------------------------------------
   -----------------------------------------------
   -7-6-4----------------------------------------
   --------7-5-4---4h5-4-----------------------
   ---------------5-------------------------------

   -----------------------------------------------
   -----------------------------------------------
   -----------------------------------------------
   -7-6-4----------------------------------------
   --------7-5-4---4h5-4-----------------------
   ---------------5---------5--------------------
Please rate this tab

Please login to submit your ratings.