Bagsakan

Parokya Ni Edgar
Author:
Album:
Halina Sa Parokya (2005)
Difficulty:
Difficult
Tuning:
Standard (E-A-D-G-B-E)
Capo:
No Capo
Date Published:
11 months ago
244 views

Chords

D5 - X577XXG5 - X101212XX
   Nandito na si Chito, si Chito Miranda
   Nandito na si Kiko, si Francis Magalona
   Nandito na si Gloc-9, wala s'yang apelyido
   Magbabagsakan dito in five, four, three, two

[Intro]
[Note] May pattern ito check niyo nalang

D5 yung nag start sa 5 fret
G5 naman yung nagstart sa 10th fret

[Note] Kung di maayos itsura ng tabs sa phone niyo punta 
lang kayo sa settings tapos check niyo yung desktop mode
   -------------------------------------------
   -------------------------------------------
   -------------------------------------------
   -----------6-5----------------------------
   -5-5-8-5------8--5-5-8-5---------------
   -----------------------------8-8-8-[3X]--

   -------------------------------------------
   -------------------------------------------
   -------------------------------------------
   -----------6-5---  7 7 7 7 7 7 7----------
   -5-5-8-5------8--5 5 5 5 5 5 5----------
   -------------------------------------------

   -------------------------------------------
   -------------------------------------------
   -------------------------------------------
   -----------6-5----------------------------
   -5-5-8-5------8--5-5-8-5---------------
   -----------------------------8-8-8-[3X]--
   Nandito na si Chito, si Chito Miranda
   Nandito rin si Kiko, si Francis Magalona
   Nandito rin si Gloc-9, wala s'yang apelyido



   -------------------------------------------
   -------------------------------------------
   -------------------------------------------
   -----------6-5---  7 7 7 7 7 7 7----------
   -5-5-8-5------8--5 5 5 5 5 5 5----------
   -------------------------------------------
   Magbabagsakan dito, mauuna si Chito


[Chito Verse]


   -------------------------------------------
   -------------------------------------------
   -------------------------------------------
   -----------6-5----------------------------
   -5-5-8-5------8--[3X]-------------------
   -------------------------------------------
   'Di ko alam kung ba't ako kasama dito
   Sama-sama sa mga pasabog nila Kiko at ni Gloc
   Astig, patinikan ng bibig



   -------------------------------------------
   -------------------------------------------
   -------------------------------------------
   -----------5-6-7--------------------------
   -5-5-8-5---------------------------------
   -------------------------------------------
   Teka muna, teka lang, painom muna ng tubig



   -------------------------------------------
   -------------------------------------------
   -------------------------------------------
   ----------------11-10---------------------
   -10-10-13-10--------13--[3X]-----------
   -------------------------------------------
   Shift sa segunda bago mapatumba
   Dapat makaisip ka ng rhyme na maganda
   At madulas ang pagbigkas



   -------------------------------------------
   -------------------------------------------
   -------------------------------------------
   ----------------10-11-12-----------------
   -10-10-13-10----------------------------
   -------------------------------------------
   At astig, baka sakaling marinig ng



   -------------------------------------------
   -------------------------------------------
   -------------------------------------------
   -----------6-5----------------------------
   -5-5-8-5------8--[3X]-------------------
   -------------------------------------------
   Libo-libo na Pilipinong 
   Nakikinig sa mga pabibo ko
   'Di ka ba nagugulat sa mga naganap?
   


   -------------------------------------------
   -------------------------------------------
   -------------------------------------------
   -----------5-6-7--------------------------
   -5-5-8-5---------------------------------
   -------------------------------------------
   'Di ko din alam kung ba't ako sikat



   -------------------------------------------
   -------------------------------------------
   -------------------------------------------
   ----------------11-10---------------------
   -10-10-13-10--------13--[3X]-----------
   -------------------------------------------
   Para bang panaginip na pinilit makamit
   Talagang sinusulit ang pagiging makulit
   Kailangang galingan, hindi na kayang tapatan



   -------------------------------------------
   -------------------------------------------
   -------------------------------------------
   ----------------10-11-12-----------------
   -10-10-13-10----------------------------
   -------------------------------------------
   Ang tugtugan ng Parokya at ang aming samahan



   -------------------------------------------
   -------------------------------------------
   -------------------------------------------
   -7--10---9--12--------------------------
   -5-- 8--- 7--10--[2X]--------------------
   -------------------------------------------
   Shit, pa'no 'to, wala na 'kong masabi
   Ngunit kailangang gumalaw ng mga labi kong ito



   -------------------------------------------
   -------------------------------------------
   -------------------------------------------
   -7-7--10-10- 9-9--12-12---------------
   -5-5-- 8-- 8--7-7--10-10--[2X]---------
   ------------------------------------------
   Kunyari, nagbabakasakali
   Na magaling din ako kaya nasali



   -------------------------------------------
   -------------------------------------------
   -------------------------------------------
   -----------6-5----------------------------
   -5-5-8-5------8--5-5-8-5---------------
   -----------------------------8-8-8-[3X]--
   Natapos na si Chito, si Chito Miranda
   Nandito na si Kiko, si Francis Magalona
   Nandito rin si Gloc-9, wala s'yang apelyido



   -------------------------------------------
   -------------------------------------------
   -------------------------------------------
   -----------6-5---  7 7 7 7 7 7 7----------
   -5-5-8-5------8--5 5 5 5 5 5 5----------
   -------------------------------------------
   Magbabagsakan dito, babanat na si Kiko


[Kiko Verse]


   -------------------------------------------
   -------------------------------------------
   -------------------------------------------
   -----------6-5----------------------------
   -5-5-8-5------8--[3X]-------------------
   -------------------------------------------
   It ain't an UZI or Ingram, triggers on the maximum
   Not a 45' or 44' Magnum
   And it ain't even a 357



   -------------------------------------------
   -------------------------------------------
   -------------------------------------------
   -----------5-6-7--------------------------
   -5-5-8-5---------------------------------
   -------------------------------------------
   Nor 12' gauge, but the mouth, so listen



   -------------------------------------------
   -------------------------------------------
   -------------------------------------------
   ----------------11-10---------------------
   -10-10-13-10--------13--[3X]-----------
   -------------------------------------------
   Nandito na si Kiko at kasama ko si Chito at si Gloc-9
   And it's time to rock rhyme
   'Di ko mapigilang lumabas ang mga salita



   -------------------------------------------
   -------------------------------------------
   -------------------------------------------
   ----------------10-11-12-----------------
   -10-10-13-10----------------------------
   -------------------------------------------
   Sa aking bibig na 'di padadaig 




   -------------------------------------------
   -------------------------------------------
   -------------------------------------------
   -----------6-5----------------------------
   -5-5-8-5------8--[3X]-------------------
   -------------------------------------------
   Ang bunganga, hala, tumunganga
   Lahat napapahanga sa talento, ako'y taga-Kalentong
   Batang Mandaluyong na ngayon nakatira sa Antipolo



   -------------------------------------------
   -------------------------------------------
   -------------------------------------------
   -----------5-6-7--------------------------
   -5-5-8-5---------------------------------
   -------------------------------------------
   Sumasaklolo sa mga hip-hop



   -------------------------------------------
   -------------------------------------------
   -------------------------------------------
   ----------------11-10---------------------
   -10-10-13-10--------13--[3X]-----------
   -------------------------------------------
   Pwede career-in o pwede rin trip lang
   Si Gloc, kasama ng Parokya
   Parang Bulagaan na kailangan 'di mabokya



   -------------------------------------------
   -------------------------------------------
   -------------------------------------------
   ----------------10-11-12-----------------
   -10-10-13-10----------------------------
   -------------------------------------------
   'Di mo na kailangan pang malaman kung bakit pa



   -------------------------------------------
   -------------------------------------------
   -------------------------------------------
   -7--10---9--12--------------------------
   -5-- 8--- 7--10--[2X]--------------------
   -------------------------------------------
   Kaming lahat ay nagsama-sama
   Mic check, eto na, nagsanib na ang puwersa


   -------------------------------------------
   -------------------------------------------
   -------------------------------------------
   -7-7--10-10- 9-9--12-12---------------
   -5-5-- 8-- 8--7-7--10-10--[2X]---------
   ------------------------------------------
   Francis Magalona, Gloc-9 at ang Parokya
   One, two, three, four, let's volt in



   -------------------------------------------
   -------------------------------------------
   -------------------------------------------
   -----------6-5----------------------------
   -5-5-8-5------8--5-5-8-5---------------
   -----------------------------8-8-8-[3X]--
   Natapos na si Chito, si Chito Miranda
   Tapos na rin si Kiko, si Francis Magalona


   -------------------------------------------
   -------------------------------------------
   -------------------------------------------
   ------------10-11-10--------------------
   -10-10-13------------13-10--[2X]------
   -------------------------------------------
   Nandito na si Gloc-9 (ah, mic check, mic check)
   Wala s'yang apelyido (okay na ba 'yung mic?)


   -------------------------------------------
   -------------------------------------------
   -------------------------------------------
   -----------6-5----------------------------
   -5-5-8-5------8--5-5-8-5---------------
   -----------------------------8-8-8-------
   Magbabagsakan dito, kailangan nang mag-ingat



   -------------------------------------------
   -------------------------------------------
   -------------------------------------------
   -----------6-5---  7 7 7 7 7 7 7----------
   -5-5-8-5------8--5 5 5 5 5 5 5----------
   -------------------------------------------
   At ang huling bagsakan, si Gloc-9 ang babanat


[Gloc-9 Verse]


   -------------------------------------------
   -------------------------------------------
   -------------------------------------------
   -----------6-5----------------------------
   -5-5-8-5------8--[3X]-------------------
   -------------------------------------------
   Bato-bato sa langit, ang tamaa'y 'wag magalit
   Bawal ang nakasimangot, baka lalo kang pumangit
   Pero okay lang, 'di naman kami mga suplado



   -------------------------------------------
   -------------------------------------------
   -------------------------------------------
   -----------5-6-7--------------------------
   -5-5-8-5---------------------------------
   -------------------------------------------
   Sumabay ka sa 'min na parang nakaeroplano




   -------------------------------------------
   -------------------------------------------
   -------------------------------------------
   ----------------11-10---------------------
   -10-10-13-10--------13--[3X]-----------
   -------------------------------------------
   Sa tunog ng gitara 
   Kasama ng pinakamalupit na banda
   Pati si Kiko, magaling, 'di pa rin kayang tapatan


   -------------------------------------------
   -------------------------------------------
   -------------------------------------------
   ----------------10-11-12-----------------
   -10-10-13-10----------------------------
   -------------------------------------------
   Parang awit na lagi mong binabalik-balikan



   -------------------------------------------
   -------------------------------------------
   -------------------------------------------
   -----------6-5----------------------------
   -5-5-8-5------8--[3X]-------------------
   -------------------------------------------
   Stop, rewind and play mo
   Napakasaya na para bang birthday ko
   Alam mo na siguro'ng ibig kong sabihin
   'Di na kailangan pang 



   -------------------------------------------
   -------------------------------------------
   -------------------------------------------
   -----------5-6-7--------------------------
   -5-5-8-5---------------------------------
   -------------------------------------------
   Paikut-ikutin, baka lalong matagalan lang




   -------------------------------------------
   -------------------------------------------
   -------------------------------------------
   ----------------11-10---------------------
   -10-10-13-10--------13--[3X]-----------
   -------------------------------------------
   Lumapit at makinig para 'yong maintindihan
   Mga salitang sinulat na hindi ko pa bilang
   Pero pwedeng ilatag na parang banig na higaan


   -------------------------------------------
   -------------------------------------------
   -------------------------------------------
   ----------------10-11-12-----------------
   -10-10-13-10----------------------------
   -------------------------------------------
   'Pag hinawakan ang mikropono, parang nabubuwang



   -------------------------------------------
   -------------------------------------------
   -------------------------------------------
   -7--10---9--12--------------------------
   -5-- 8--- 7--10--[2X]--------------------
   -------------------------------------------
   Teka, 'di naman siguro
   Ganyan lang 'pag gumagawa kami ng bago, medyo nabibilisan



   -------------------------------------------
   -------------------------------------------
   -------------------------------------------
   -7-7--10-10- 9-9--12-12---------------
   -5-5-- 8-- 8--7-7--10-10--[2X]---------
   ------------------------------------------
   'Di mo naisip na pwedeng mangyaring
   Magkasama-sama, lahat ay kasali, game


[Chito Outro]


   -------------------------------------------
   -------------------------------------------
   -------------------------------------------
   -7-7--10-10- 9-9--12-12---------------
   -5-5-- 8-- 8--7-7--10-10--[3X]---------
   ------------------------------------------
   Ngayon lang narinig, 'di na 'to madadaig
   Nagsama-sama sa bagsakan at naging isang bibig
   Mag-ingat-ingat ka nga't baka masindak



   -------------------------------------------
   -------------------------------------------
   -------------------------------------------
   -7-7--10-10- 9-9--12-12-7-------------
   -5-5-- 8-- 8--7-7--10-10-5-------------
   ------------------------------------------
   Sapagkat nandito na si Chito at si Kiko at si Gloc
Please rate this tab

Please login to submit your ratings.