Pati Pato (Parokya Remix)

Parokya Ni Edgar
Author:
Album:
Borbolen (2021)
Difficulty:
Difficult
Tuning:
Standard (E-A-D-G-B-E)
Capo:
No Capo
Date Published:
10 months ago
604 views

Chords

Cm-X35543Fm-133111Gm-355333G#-466544Bb-X13331
[Intro]
[Note] Dapat familiar kayo sa tunog para masundan
ng maayos

Cm---
   ---------------------------------------------------
   -0-0-0-0-4---0-0-0-0-6---0-0-0-0-7-----------
   ---------- 5------------ 5------------ 5-----------
   ---------- 5------------ 5------------ 5-----------
   ---------- 3------------ 3------------ 3-----------
   ---------------------------------------------------

[Verse]

   ---------------------------------------------------
   ---------------------------------------------------
   -5-5---8\7---10/11--- 11/12---4----------------
   ---------------------------------------------------
   -3-3---6\5--- 8 / 9-----9 / 10---2----------------
   ---------------------------------------------------
   Tayong lahat ay may yaman na taglay
  


   ---------------------------------------------------
   ---------------------------------------------------
   -5-5---8\7---10/11--8\7-7----------------------
   ---------------------------------------------------
   -3-3---6\5--- 8 / 9---6/5-5----------------------
   ---------------------------------------------------
   Dapat mapantay kahit na sumablay
 


   --------------------------------------------------
   --------------------------------------------------
   -5-5---8\7---10/11--- 11/12-------------------
   --------------------------------------------------
   -3-3---6\5--- 8 / 9-----9 / 10-------------------
   --------------------------------------------------
   Di puwedeng matamlay kahit naka saklay
   


   --------------------------------------------------
   --------------------------------------------------
   --------------------------------------------------
   -3-3---3-3-5-5---------------------------------
   --------------------------------------------------
   -1-1---1-1-3-3---------------------------------
   Matutong mag antay sa mga sinampay



   ---------------------------------------------------
   ---------------------------------------------------
   -5-5---8\7---10/11--- 11/12---4----------------
   ---------------------------------------------------
   -3-3---6\5--- 8 / 9-----9 / 10---2----------------
   ---------------------------------------------------
   Buhat ng kausapin ko ang aking pangarap

  

   ---------------------------------------------------
   ---------------------------------------------------
   -5-5---8\7---10/11--8\7-7----------------------
   ---------------------------------------------------
   -3-3---6\5--- 8 / 9---6/5-5----------------------
   ---------------------------------------------------
   Kahit mag tago ka ng mabuti’y aking mahahanap

 

   --------------------------------------------------
   --------------------------------------------------
   -5-5---8\7---10/11--- 11/12-------------------
   --------------------------------------------------
   -3-3---6\5--- 8 / 9-----9 / 10-------------------
   --------------------------------------------------
   Tinig ng batang probinsyano ay mapalaganap

   

   --------------------------------------------------
   --------------------------------------------------
   --------------------------------------------------
   -3-3---3-3-5-5---------------------------------
   --------------------------------------------------
   -1-1---1-1-3-3---------------------------------
   Di ko man inakala na kahit na sa hinagap

[Pre-Chorus]
Cm
   ---------------------------------------------------
   -0-0-0-0-4---0-0-0-0-6---0-0-0-0-7-----------
   ---------- 5------------ 5------------ 5-----------
   ---------- 5------------ 5------------ 5-----------
   ---------- 3------------ 3------------ 3-----------
   ---------------------------------------------------
   Ay mapapakinggan kahit na minsan
   Pag kakataon na ayaw kang bigyan
   Ng pang lamang tiyan ulam sa pinggan



   --------------------------------------------------
   --------------------------------------------------
   --------------------------------------------------
   -3---3----5---5---------------------------------
   --------------------------------------------------
   -1---1----3---3---------------------------------
   May humatak man sa likod harap ang tingnan



   ---------------------------------------------------
   -0-0-0-0-4---0-0-0-0-6---0-0-0-0-7-----------
   ---------- 5------------ 5------------ 5-----------
   ---------- 5------------ 5------------ 5-----------
   ---------- 3------------ 3------------ 3-----------
   ---------------------------------------------------
   Pero huwag kalimutang mag pasalamat sayong mga nakatuwang
   Kahit na makalamang
   Hindi mo kailangan pa na mag mayabang
   Kape man ay matabang
   Bakit hindi na mainit inumin mo lang

   --------------------------------------------------
   --------------------------------------------------
   --------------------------------------------------
   -5---5----5---5---------------------------------
   --------------------------------------------------
   -3---3----3---3---------------------------------
   Bituwin sa langit na hindi mo pa bilang
   Mga panaginip sige tuparin mo lang
   Pati pato

[Chorus]

       G#                         
   Tara sa panibagong kanta at makisalo
       Bb                                        
   Panalo at lalong malasa pag hinalo
   Gm                                   
   Ang mga barang patok at pamihadong
        Cm                   Bb
   Uulit ulit ulitin upang makabisado
           G#  
   Ang mga salita mo laging asintado
   Gm
   Dito sa laro hindi man laging sigurado
   Cm                      Bb 
   Dapat itaya mo kahit pa dehado
   G#                                       Gm
   Todo mo na ang iyong panabla pati pato

[Verse]

[Note] Nakamute lang sa unang tab pero kung gusto
niyo ok lang
   ---------------------------------------------------
   ---------------------------------------------------
   -5-5---8\7---10/11--- 11/12---4----------------
   ---------------------------------------------------
   -3-3---6\5--- 8 / 9-----9 / 10---2----------------
   ---------------------------------------------------
   Nag simula kami wala akong pera



   ---------------------------------------------------
   ---------------------------------------------------
   -5-5---8\7---10/11--8\7-7----------------------
   ---------------------------------------------------
   -3-3---6\5--- 8 / 9---6/5-5----------------------
   ---------------------------------------------------
   Baon kami sa utang kahit na atenista



   --------------------------------------------------
   --------------------------------------------------
   -5-5---8\7---10/11--- 11/12-------------------
   --------------------------------------------------
   -3-3---6\5--- 8 / 9-----9 / 10-------------------
   --------------------------------------------------
   Wala akong talento hindi rin ako guwapo



   --------------------------------------------------
   --------------------------------------------------
   --------------------------------------------------
   -3-3---3-3-5-5---------------------------------
   --------------------------------------------------
   -1-1---1-1-3-3---------------------------------
   Pero tangina nila di ako nag patalo



   ---------------------------------------------------
   ---------------------------------------------------
   -5-5---8\7---10/11--- 11/12---4----------------
   ---------------------------------------------------
   -3-3---6\5--- 8 / 9-----9 / 10---2----------------
   ---------------------------------------------------
   Bakit ko papansinin kung san sila lamang



   ---------------------------------------------------
   ---------------------------------------------------
   -5-5---8\7---10/11--8\7-7----------------------
   ---------------------------------------------------
   -3-3---6\5--- 8 / 9---6/5-5----------------------
   ---------------------------------------------------
   Tututukan ko nalang kung san ko kayang galingan



   --------------------------------------------------
   --------------------------------------------------
   -5-5---8\7---10/11--- 11/12-------------------
   --------------------------------------------------
   -3-3---6\5--- 8 / 9-----9 / 10-------------------
   --------------------------------------------------
   Hindi patas ang laban pero sandali lang



   --------------------------------------------------
   --------------------------------------------------
   --------------------------------------------------
   -3-3---3-3-5-5---------------------------------
   --------------------------------------------------
   -1-1---1-1-3-3---------------------------------
   Wala namang nag sabi na pantay pantay ang ating dadaanan

[Pre-Chorus]
Cm
   ---------------------------------------------------
   -0-0-0-0-4---0-0-0-0-6---0-0-0-0-7-----------
   ---------- 5------------ 5------------ 5-----------
   ---------- 5------------ 5------------ 5-----------
   ---------- 3------------ 3------------ 3-----------
   ---------------------------------------------------
   Iba't ibang hagdanan
   Ang importante ay tuloy tuloy ang pag hakbang
   Basagin natin ang hadlang huwag mong gamiting dahilan



   --------------------------------------------------
   --------------------------------------------------
   --------------------------------------------------
   -3---3----5---5---------------------------------
   --------------------------------------------------
   -1---1----3---3---------------------------------
   Kapag merong gusto palaging merong paraan



   ---------------------------------------------------
   -0-0-0-0-4---0-0-0-0-6---0-0-0-0-7-----------
   ---------- 5------------ 5------------ 5-----------
   ---------- 5------------ 5------------ 5-----------
   ---------- 3------------ 3------------ 3-----------
   ---------------------------------------------------
   Tandaan mo lang kailangan nating
   Galingan pag meron kang pangarap
   Huwag na huwag mong papakawalan
   Lalo na kung meron kang kakaibang aabutin



   --------------------------------------------------
   --------------------------------------------------
   --------------------------------------------------
   -5---5----5---5---------------------------------
   --------------------------------------------------
   -3---3----3---3---------------------------------
   Dapat handa kang pag hirapan
   Ano man ang harapin Chong

[Chorus]

       G#                         
   Tara sa panibagong kanta at makisalo
       Bb                                        
   Panalo at lalong malasa pag hinalo
   Gm                                   
   Ang mga barang patok at pamihadong
        Cm                   Bb
   Uulit ulit ulitin upang makabisado
           G#  
   Ang mga salita mo laging asintado
   Gm
   Dito sa laro hindi man laging sigurado
   Cm                      Bb 
   Dapat itaya mo kahit pa dehado
   G#                                       Gm
   Todo mo na ang iyong panabla pati pato

[Verse]

   ---------------------------------------------------
   ---------------------------------------------------
   -5-5---8\7---10/11--- 11/12---4----------------
   ---------------------------------------------------
   -3-3---6\5--- 8 / 9-----9 / 10---2----------------
   ---------------------------------------------------
   Tinapat ang salamin tinanong kung para saan ka 
   pa ba nandyan



   ---------------------------------------------------
   ---------------------------------------------------
   -5-5---8\7---10/11--8\7-7----------------------
   ---------------------------------------------------
   -3-3---6\5--- 8 / 9---6/5-5----------------------
   ---------------------------------------------------
   Dumaan sa ganito't ganyang hadlang hanggang 
   makaramdam



   --------------------------------------------------
   --------------------------------------------------
   -5-5---8\7---10/11--- 11/12-------------------
   --------------------------------------------------
   -3-3---6\5--- 8 / 9-----9 / 10-------------------
   --------------------------------------------------
   Ng pagod mabigo tumino saktan na nagtulak 
   sakin alamin



   --------------------------------------------------
   --------------------------------------------------
   --------------------------------------------------
   -3-3---3-3-5-5---------------------------------
   --------------------------------------------------
   -1-1---1-1-3-3---------------------------------
   Ang kaya pa marating ng sulatan at kada hinaing



   ---------------------------------------------------
   ---------------------------------------------------
   -5-5---8\7---10/11--- 11/12---4----------------
   ---------------------------------------------------
   -3-3---6\5--- 8 / 9-----9 / 10---2----------------
   ---------------------------------------------------
   Lalong gumaling nung kala mo napuruhan sa



   ---------------------------------------------------
   ---------------------------------------------------
   -5-5---8\7---10/11--8\7-7----------------------
   ---------------------------------------------------
   -3-3---6\5--- 8 / 9---6/5-5----------------------
   ---------------------------------------------------
   Murang gulang di masukat ang kamalayang sungay



   --------------------------------------------------
   --------------------------------------------------
   -5-5---8\7---10/11--- 11/12-------------------
   --------------------------------------------------
   -3-3---6\5--- 8 / 9-----9 / 10-------------------
   --------------------------------------------------
   Papanuwag sa di makataong mundo nakaka umay na



   --------------------------------------------------
   --------------------------------------------------
   --------------------------------------------------
   -3-3---3-3-5-5---------------------------------
   --------------------------------------------------
   -1-1---1-1-3-3---------------------------------
   Lumipad habang may buhay gamit husay sama na gulay uh

[Pre-Chorus]
Cm
   ---------------------------------------------------
   -0-0-0-0-4---0-0-0-0-6---0-0-0-0-7-----------
   ---------- 5------------ 5------------ 5-----------
   ---------- 5------------ 5------------ 5-----------
   ---------- 3------------ 3------------ 3-----------
   ---------------------------------------------------
   Tsob tsa tagilid
   Akin sa pamatong utak damdamin
   San man dalhin ng maduming hangin
   May baong bara't dasalin'g
   Panawid sa madugo niyo'ng pain
   Ang panahon'g to sakin amin kabig



   --------------------------------------------------
   --------------------------------------------------
   --------------------------------------------------
   -3---3----5---5---------------------------------
   --------------------------------------------------
   -1---1----3---3---------------------------------
   Pati pato halata na di malabo para linawin



   ---------------------------------------------------
   -0-0-0-0-4---0-0-0-0-6---0-0-0-0-7-----------
   ---------- 5------------ 5------------ 5-----------
   ---------- 5------------ 5------------ 5-----------
   ---------- 3------------ 3------------ 3-----------
   ---------------------------------------------------
   Natural ng may doble kara
   Anumang mundo ang lakaran
   Buti nalang ay sanay ako
   Sa gubat ahas kalat lamang
   Limitasyon na walang hangganan
   Ang dala hanggang sa dulo



   --------------------------------------------------
   --------------------------------------------------
   --------------------------------------------------
   -5---5----5---5---------------------------------
   --------------------------------------------------
   -3---3----3---3---------------------------------
   Sige matawa habang may ulo
   Ka pa sa mata ko tara

[Chorus]

       G#                         
   Tara sa panibagong kanta at makisalo
       Bb                                        
   Panalo at lalong malasa pag hinalo
   Gm                                   
   Ang mga barang patok at pamihadong
        Cm                   Bb
   Uulit ulit ulitin upang makabisado
           G#  
   Ang mga salita mo laging asintado
   Gm
   Dito sa laro hindi man laging sigurado
   Cm                      Bb 
   Dapat itaya mo kahit pa dehado
   G#                                       Gm
   Todo mo na ang iyong panabla pati pato
Please rate this tab

Please login to submit your ratings.