Boys Do Fall In Love

Parokya Ni Edgar
Author:
Album:
Solid (2007)
Difficulty:
Normal
Tuning:
Standard (E-A-D-G-B-E)
Capo:
No Capo
Date Published:
10 months ago
567 views

Chords

C-X32010Am-X02210Dm-XX0231F-133211G-355433
[Intro]
C---

[Note] Kung di maayos itsura ng tabs sa phone niyo punta 
lang kayo sa settings tapos check niyo yung desktop mode
   ----------------------------------------------------------------
   ----------------------------------------------------------------
   -9-9---7-7---5-5---12-12---9-9-10-9--------5-------------
   -X-X---X-X---X-X----X - X--------------10\----X-------------
   -7-7---5-5---3-3---10-10---------------------3-------------
   ----------------------------------------------------------------

   ----------------------------------------------------------------
   ----------------------------------------------------------------
   -5-5-5-5-5---5---5---5---------------------------------------
   -X-X-X-X-X---X---X---X---------------------------------------
   -3-3-3-3-3---3---3---3---------------------------------------
   ----------------------------------------------------------------

   ----------------------------------------------------------------
   ----------------------------------------------------------------
   -9-9---7-7---12-12---7-7------9-9-10-9-------- 5---------
   -X-X---X-X--- X - X----X-X-----------------10\----X----------
   -7-7---5-5---10-10---5-5------------------------ 3----------
   ----------------------------------------------------------------

[Verse]

   C
   Baby said you had to be a lover
   C
   One way or the other
   C
   Nobody wins without once giving in
                       Dm                     Dm
   So don't cry now , don't cry now
   C
   Love is just a game you played in high school
   C
   Girls know how to be cruel
   C
   Most of the time girls are cruel to be kind
                        Dm                    Dm
   So don't cry now , don't cry now

[Pre-Chorus]

                  F                                   G                              C 
   And we try to be cool as we dance in a crowded room
               F                                      G                        C 
   At the end of the day , makin' love to a paper moon

[Chorus]

                     C      Am-F       G       F                 G
   She said , boys do fall in love , they make time
C             Am              F
   Making love on a Saturday night
                             F          G                   C
   And she said , hearts beat as they dance
              F                  G
   In the street to a radio , oh
F-G                  C-C
   Boys fall in love

[Verse]

   C
   Baby knows i like to be excited
   C
   No one wants to fight it
   C
   It's getting late so I'll just demonstrate
                   Dm                    Dm
   Don't cry now , don't cry now

[Pre-Chorus]

                  F                                 G                                C
   And we try to be cool as we dance in a crowded room
               F                                      G                        C
   At the end of the day , makin' love to a paper moon

[Chorus]

                            C      Am-F       G       F                 G
   And she said , boys do fall in love , they make time
C              Am             F
   Making love on a Saturday night
                             F          G                   C
   And she said , hearts beat as they dance
              F                  G
   In the street to a radio , oh
   C      Am-F       G       F                 G
   Boys do fall in love ,they make time (they make time)
C              Am             F
   Making love on a Saturday night
                            F          G                   C
   And she said, hearts beat as they dance
              F                  G
   In the street to a radio , oh
F-G                  C
   Boys fall in love

[Interlude]
Repeat Intro

   C---
   Bo-bo-bo-bo-boys-boys
   C---
   Bo-bo-bo-bo-boys-boys

[Pre-Chorus]

F                     G
   Boys, boys, boys
F                     G
   Boys, boys, boys
F                     G
   Boys, boys, boys

[Chorus]

   C      Am-F       G       F                 G
   Boys do fall in love ,they make time (they make time)
C              Am             F
   Making love on a Saturday night
                             F          G                   C
   And she said , hearts beat as they dance
              F                  G
   In the street to a radio , oh
   C      Am-F       G       F                 G
   Boys do fall in love ,they make time (they make time)
C              Am             F
   Making love on a Saturday night
                             F          G                   C
   And she said , hearts beat as they dance
              F                  G
   In the street to a radio , oh

[Outro]

F-G                  C
   Boys fall in love
F-G                  C
   Boys fall in love
F-G                  C
   Boys fall in love
F-G                  C
   Boys fall in love
Please rate this tab

Please login to submit your ratings.