Okatokat

Parokya Ni Edgar
Author:
Album:
Buruguduystunstugudunstuy (1997)
Difficulty:
Normal
Tuning:
Standard (E-A-D-G-B-E)
Capo:
No Capo
Date Published:
1 year ago
358 views

Chords

E5 - 02XXXXF#5 - 24XXXXA5 - 57XXXXB5 - 79XXXXC5 - 810XXXXXD#5 - X68XXXD5 - X57XXX
[Intro]
   -------------------------------------------
   -------0-----0------------0------0-------
   -----0-----0-----0-----0------0------0--
   -------------------------------------------
   -5/7-----7-----7---5/6------6------6----
   -------------------------------------------

   -------------------------------------------
   -----0-----0----------0------0-----------
   ---0-----0-----0---0------0------0------
   -------------------------------------------
   -5-----5-----5---4------4------4--------
   -------------------------------------------

[Verse]

   -------------------------------------------
   -----0-----0------------0------0----------
   ---0-----0-----0-----0------0------0-----
   --------------------------------------------
   -7-----7-----7-----6------6------6-------
   --------------------------------------------
   Hoy mga pare ko, anong nangyari dito

   -------------------------------------------
   -----0-----0----------0------0-----------
   ---0-----0-----0---0------0------0------
   -------------------------------------------
   -5-----5-----5---4------4------4--------
   -------------------------------------------
   Bakit biglang namutla ang mukha ko?

   -------------------------------------------
   -------------------------------------------
   -----3---------------2--------------------
   ---2---------------1----------------------
   -3---------------2------------------------
   -------------------------------------------
   Nanginginig, tumindig ang balahibo

   -------------------------------------------
   -------------------------------------------
   -----3---------------2--------------------
   ---2---------------1----------------------
   -3---------------2------------------------
   -------------------------------------------
   Gusto kong sumigaw, gusto kong tumakbo palayo
  
[Verse]
[Note] Tig isang strum sa bawat chord

   E5 - F#5 - A5 - F#5-F#5
   Hoy, meron akong nakita
   E5-E5 - F#5 - F#5 - F#5 - F#5
   Isang babae na nagpapakita sa kusina t'wing gabi
   E5 - F#5 - A5 - F#5-F#5
   Nye! white lady ang dating
   E5-E5 - F#5 - F#5 - F#5 - F#5
   Okatokat, nakakapraning
   E5 - F#5 - A5 - F#5-F#5
   Ako'y kinabahan, dahan dahang nilapitan
   E5-E5 - F#5 - F#5 - F#5 - F#5
   Mula sa likod bigla ko syang sinunggaban
   E5 - F#5 - A5 - B5
   Ako'y napahiya nung nakilala ko kung sino
   C5 - B5 - A5 - F#5-F#5-F#5
   Si nanay lang naman pala, akala ko multo
   
[Chorus]
Yung E5 na gagamitin dito ay [X79XXX]

   E5
   Tatay kong masungit
   Okatokat!
   E5
   Kaning mainit
   Okatokat!
   E5
   Syota kong ma-gimik
   Okatokat!
                  E5   
   Punung puno ng sabit

[Verse]
[Note] Tig isang strum sa bawat chord

   E5 - F#5 - A5 - F#5-F#5
   Magisa sa kwarto, ano ba naman ito
   E5-E5 - F#5 - F#5 - F#5 - F#5
   Sa gitna ng dilim, kabado nanaman ako
   E5 - F#5 - A5 - F#5-F#5
   Sa king paligid, merong nakatitig
   E5-E5 - F#5 - F#5 - F#5 - F#5
   Okatokat, ako ay nanginginig
   E5 - F#5 - A5 - F#5-F#5
   So, ako'y tumahimik at ako'y kinabahan
   E5-E5 - F#5 - F#5 - F#5 - F#5
   Bumaba mula sa kama ko, dahan dahan
   E5 - F#5 - A5 - B5
   Sabay takbo sa ilaw at bigla kong binuksan
   C5 - B5 - A5 - F#5-F#5-F#5
   Salamin lang pala, buti na lang

[Chorus]
Yung E5 na gagamitin dito ay [X79XXX]

   E5
   Tatay kong masungit
   Okatokat!
   E5
   Kaning mainit
   Okatokat!
   E5
   Syota kong ma-gimik
   Okatokat!
                  E5   
   Punung puno ng sabit

[Bridge]
[Note] Tig isang strum sa bawat chord
Yung E5 na gagamitin dito ay [X79XXX]

   E5 - E5-D#5-D5 - D5 - D#5
   Kung gusto mong lumigaya ang iyong buhay
   E5 - E5-D#5-D5 - D5 - D#5
   Humanap ka ng panget at ibigin mong tunay
   E5 - E5-D#5-D5 - D5 - D#5
   Isang panget na talagang di mo matanggap
   E5 - E5-D#5-D5 - D5 - D#5
   At huwag ang lalakeng iyong pangarap

   E5 - E5-D#5-D5 - D5 - D#5
   Ngunit kung bakit ko sinabi to ay simple lang
   E5 - E5-D#5-D5 - D5 - D#5
   Pagkat magagandang lalake'y naglalaro lang
   E5 - E5-D#5-D5 - D5 - D#5
   Ng 'yong oras, bago, di lang at salapi
   E5 - E5-D#5-D5 - D5 - D#5
   Ngunit handang handang iwan ka naman sandali

   E5 - E5-D#5-D5 - D5 - D#5
   Na ikaw ay wala ng ibigay di ba?
   E5 - E5-D#5-D5 - D5 - D#5
   Kaya pangit na lalake ang hanapin mo day
   E5 - E5-D#5-D5 - D5 - D#5
   Kung hinde, sige ka, puso mo'y mabibiyak
   E5 - E5-D#5-D5 - D5 - D#5
   Mawalay man ang panget ay hindi ka iiyak, di ba?
   E5 - E5-D#5-D5 - D5 - D#5
   
   D5-E5 - E5 - E5 - E5
   Humanap ka ng panget
   Wag na uy, wag na wag na uy
   D5-E5 - E5 - E5 - E5
   Humanap ka ng panget
   Wag na uy, wag na wag na uy
   D5-E5 - E5 - E5 - E5
   Humanap ka ng panget
   Wag na uy, wag na wag na uy
  
[Verse]
[Note] Tig isang strum sa bawat chord
Yung E5 na gagamitin dito ay [X79XXX]


   D5-E5-E5
   Sasabihin ko sa inyo kung anong nangyari
   D5-E5-E5
   Nung may madate akong isang panget na babae
   D5-E5-E5
   Manliligaw niya ay talagang ang dame
   D5-E5-E5
   Ngunit nung sya'y nakita ko, mukha syang tae
   D5-E5 - E5 - E5 - E5
   Sa akin ay matatawa ka talaga
   D5-E5 - E5 - E5 - E5
   Pagkat kahawig na kahawig nya si Zoraida
   D5-E5 - E5 - E5 - E5
   Maniwala ka at ako'y napaibig nya
   E5
   Baket?
   E kasi ang bait bait nya
   D5-E5 - E5 - E5 - E5
   Lahat ng aking hilingin di tumatanggi
   D5-E5 - E5 - E5 - E5
   Palagi syang nakahalik sa aking pisngi
   E5~
   Ako'y sya
   Wow
   Araw araw na di sya kasama ko tila gusto kong sumigaw

[Verse]
[Note] Hanggang ending na tong riff
Yung E5 na gagamitin dito ay [X79XXX]

   E5 - E5-D#5-D5 - D5 - D#5
   Gusto kong iwanan sya ngunit ako'y nagising
   E5 - E5-D#5-D5 - D5 - D#5
   Ito ba'y totoo o isang panaginip
   E5 - E5-D#5-D5 - D5 - D#5
   Di sya maganda, ngunit ako'y kanyang hari
   E5
   Di ka matanggihan kaya kasama mo palagi
   E5 - E5-D#5-D5 - D5 - D#5
   Sabihin man nila na ako'y mangmang
   E5 - E5-D#5-D5 - D5 - D#5
   Para sa akin kagandahan ay hanggang balat lamang
   E5 - E5-D#5-D5 - D5 - D#5
   At sa inyo meron akong ibubulong
   E5
   Second anniversary na namin to tsong

   E5 - E5-D#5-D5 - D5 - D#5  
   Kaya para lumigaya ang iyong buhay
   E5 - E5-D#5-D5 - D5 - D#5
   Humanap ka ng panget at ibigin mong tunay
   E5 - E5-D#5-D5 - D5 - D#5
   At kung hinde, sige ka, puso mo'y mabibiyak
   E5
   Mawalay man ang panget ay hindi ka iiyak, di ba?

   E5 - E5-D#5-D5 - D5 - D#5
   Humanap ka ng panget
   Wag na uy, wag na wag na uy
   E5 - E5-D#5-D5 - D5 - D#5
   Humanap ka ng panget
   Wag na uy, wag na wag na uy
   E5 - E5-D#5-D5 - D5 - D#5
   Humanap ka ng panget
   Wag na uy, wag na wag na uy
   E5 - E5-D#5-D5 - D5 - D#5
   Panget
   Wag na uy, wag na wag na uy
   E5 - E5-D#5-D5 - D5 - D#5
   Panget
   Wag na uy, wag na wag na uy
   E5 - E5-D#5-D5 - D5 - D#5
   Panget
   Wag na uy, wag na wag na uy
   E5
   Panget
   Ibigin mong tunay, break it down yo

   Thank you very much
   The man
   Salamat
   Ayus un, galeng, galeng, galeng ni jay, galeng ni jay
   O, jay tapos na yung trabaho mo, pwede ka nang umuwi
Please rate this tab

Please login to submit your ratings.