Mukha ng Pera

Parokya Ni Edgar
Author:
Album:
Gulong Itlog Gulong (1999)
Difficulty:
Expert
Tuning:
Standard (E-A-D-G-B-E)
Capo:
No Capo
Date Published:
11 months ago
144 views

Chords

D-XX0232Bm-X24432A-X02220G-355433C#dim - X4565X
[Intro]
D - Bm - G - A [4X]

[Note] Mahirap sundan ito kung di ka familiar sa
tunog ng bass line

First part of bass line only 

   -------------------------------------------------------
   ---3/5--------3/5-------------------------------------
   --2-----2---2------2-----4/6---6/7------4/6---6/7--
   -0---------0------------4------4--------4-----4-----
   ----------0----------0-2-------------0-2-------------
   -------------------------------------------------------

   -------------------------------------------------------
   -------------------------------------------------------
   ----------------------------------------7/9------7----
   ------5/7---------5/7---------7*--7-------7--7*-----
   -----5-----5----5------5----7*----------------------
   -0-3--------0-3---------0-5---------5---------------

   -------5--3\2-----------------------------------------
   ----3/5------3/5--3----------------------------------
   ---2---------------------------------------4/6------6/7
   --0-------------------------0----------4--------4-----
   -0--------------------0h2-2-2-0-2--2--2--------2---
   ----------------------------------2--------------------

   -------------------------------------------------------
   ----------4/6-----6/7---------------------------------
   -4-0--4-------4--------------------------------------
   -----2--2----------------------5/7--5------5/7-----
   ------------------------2-0---5-------5---5---------
   -----------------------------3----------3-------------

   -------------------------------------------------------
   -------------------------------------------------------
   -----------7/9---------7------------------------------
   -----7--7-----7--7*-----------------------------------
   --7-------------------7--0--[Repeat from the start---
   -5-5-----5---------------------------------------------

[Refrain]

   D                                                                Bm
   Ohhh ang tao kapag walang pera'y naprapraning
                               G
   Di alam ang gagawin
       A    
   Tatawag sya sa diyos
   D                                                             Bm
   Samba dito? samba doon? oh dios ko
                                G                   A
   Tulungan n'yo po ako oh oh oh
   D                                                     Bm
   Pero pag nandyan na marami ng pera
                           G      A
   Wala ng diyos, pa'no nalunod na
   D
   Sa diyos-diyosang pera
   Bm
   Pera ng sinasamba
   G                              A
   Pera na pera na diba

[Chorus]
D#dim Easy Version -  XXX020

G                      A                  D
   Bakit ang pera may mukha
G                           A                D
   Bakit ang mukha walang pera
               G                     A
   O ang pera nga naman
               D     D#dim        Bm               
   O ang pera nga naman
               G                  A                             
   O ang tao nga naman'y mukhang pera

[Interlude]
D - Bm - G - A [2X]

[Refrain]

   D                                                                Bm
   Ohhh ang tao kapag walang pera'y naprapraning
                               G
   Di alam ang gagawin
       A    
   Tatawag sya sa diyos
   D                                                             Bm
   Samba dito? samba doon? oh dios ko
                                G                   A
   Tulungan n'yo po ako oh oh oh
   D                                                     Bm
   Pero pag nandyan na marami ng pera
                           G      A
   Wala ng diyos, pa'no nalunod na
   D
   Sa diyos-diyosang pera
   Bm
   Pera ng sinasamba
   G                              A
   Pera na pera na diba

[Chorus]
D#dim Easy Version -  XXX020

G                      A                  D
   Bakit ang pera may mukha
G                           A                D
   Bakit ang mukha walang pera
               G                     A
   O ang pera nga naman
               D     D#dim        Bm               
   O ang pera nga naman
               G                  A
   O ang tao nga naman'y 
                            D
   Mukhang pera
                            Bm
   Mukhang pera
                            G
   Mukhang pera
                            A
   Mukhang pera

[Outro]
D - Bm - G - A [4X]
D
Please rate this tab

Please login to submit your ratings.