Alone With You

Parokya Ni Edgar
Author:
Album:
Solid (2007)
Difficulty:
Difficult
Tuning:
Standard (E-A-D-G-B-E)
Capo:
No Capo
Date Published:
9 months ago
142 views

Chords

A-X02220Bm-X24432C#m-X46654D - X57775
[Verse]
A - Bm - C#m - D [2X]

[Note] Kung di maayos itsura ng tabs sa phone niyo punta 
lang kayo sa settings tapos check niyo yung desktop mode

   ------------------------------------------------------------
   ------------------------------------------------------------
   -----2-----2---2------2------2---2------------------------
   ---2-----2----------2------2-------------------------------
   -0-----0-----0---2------2------2--------------------------
   -------------------------------------------------------------
   If I could come up

   ------------------------------------------------------------
   ------------------------------------------------------------
   -----2-----2---2------------------------------------------
   ---2-----2----------------4-5-4h5p4----4\2--------------
   -4-----4-----4------4/5---------------5-------------------
   ------------------------------------------------------------
   With a better excuse I

   ------------------------------------------------------------
   ------------------------------------------------------------
   -----2-----2---2------2------2---2------------------------
   ---2-----2----------2------2-------------------------------
   -0-----0-----0---2------2------2--------------------------
   -------------------------------------------------------------
   Will, but I can't, so 

   ------------------------------------------------------------
   --------------------------5---------------------------------
   -----2-----2---2------7------------------------------------
   ---2-----2----------7--------------------------------------
   -4-----4-----4---5-----------------------------------------
   -----------------------------------------------------------
   I Won't I'll just tell you the truth

[Chorus]

              A                               Bm
   That I really think you're hot
                    C#m                        D
   And I'm afraid your friend is not
                          A                                Bm
   And though I think it's great that she could stay
        C#m                       D 
   I'd rather spend this time alone with you

[Repeat Intro]
   
[Verse]
A - Bm - C#m - D [2X]

   ------------------------------------------------------------
   ----3p2----3p2----3----3p2---3p2---3-------------------
   ------------------------------------------------------------
   ------------------------------------------------------------
   -0-------0-------0----2------2------2---------------------
   ------------------------------------------------------------
   If I could find one 

   ------------------------------------------------------------
   ---3p2----3p2---3/5---5-5-3-2h3p2-2-2-3--------------
   ------------------------------------------------------------
   ------------------------------------------------------------
   -4------4------4-------------------------------------------
   ------------------------------------------------------------
   friend, who would hook up with yours

   ------------------------------------------------------------
   ----3p2----3p2----3----3p2---3p2---3-------------------
   ------------------------------------------------------------
   ------------------------------------------------------------
   -0-------0-------0----2------2------2---------------------
   ------------------------------------------------------------
   I will, but I can't, so I 

   ------------------------------------------------------------
   ---3p2----3p2---3/5---5-5-3-3-2-2-3--------------------
   ------------------------------------------------------------
   ------------------------------------------------------------
   -4------4------4-------------------------------------------
   ------------------------------------------------------------
   Won't

[Use Intro or 2nd Verse Plucking]
A - Bm - C#m - D [2X]
   
   And if I could lie and say
   That I wish she could stay
   I will, but I don't, so I won't
   Why won't she go away?

[Chorus]

                       A                                 Bm
   Hey, look, I think your friend's okay
                             C#m                D
   And there's no easy way for me to say
                           A                            Bm
   So, could you ask your friend if she could leave
   C#m                   D              A - Bm - C#m - D [2X]          
   Just so I could be alone with you? Alone with you

[Interlude] [2X]
A - Bm - C#m - D [2X]

   ------------------------------------------------------------
   ------------------------------------------------------------
   -----2---2---2--------2---2---2---------------------------
   ---2---2---2--------2---2---2---2------------------------
   -0--------------0-2----------------------------------------
   ------------------------------------------------------------

   ------------------------------------------------------------
   ------------------------------------------------------------
   --------2---2---2-------2---2-----------------------------
   ------2---2---2-------2---2---2----2----------------------
   -2-4--------------4-5------------5------------------------
   ------------------------------------------------------------

[Verse]
A - Bm - C#m - D [2X]
   ------------------------------------------------------------
   ------------------------------------------------------------
   -----2-----2-------2-----2------2-----2------------------
   ---2-----2-------2-----2------2-----2-----4---4---4-----
   -0-----0-------2-----2------4-----4-----5---5---5-------
   ------------------------------------------------------------  
   I don't think she knows
   That I want her, so to go
  
   ------------------------------------------------------------
   -------------------------------------------------5----------
   -----2-----2-------2-----2------2-----2-----7---7--------
   ---2-----2-------2-----2------2-----2-----7--------------
   -0-----0-------2-----2------4-----4-----5----------------
   ------------------------------------------------------------
   I'm not sure if you do too
   ------------------------------------------------------------
   ------------------------------------------------------------
   -----2-----2--------2-----2--------2-----2------------------
   ---2-----2--------2-----2--------2-----2------------------
   -0-----0-----0--2-----2-----2--4-----4--------------------
   ------------------------------------------------------------
   So, tell me if you want to, be alone with
   ------------------------------------------------------------
   ------------------------------------------------------------
   ------------------------------------------------------------
   ---------4-5-4h5p4----4\2--------------------------------
   -4--4/5--------------5-------------------------------------
   ------------------------------------------------------------
    me too

   ------------------------------------------------------------
   ---------------------------------------------------5--------
   -----2-----2--------2-----2-------2-----2-----7---7------
   ---2-----2--------2-----2-------2-----2-----7------------
   -0-----0-----0--2-----2----2--4-----4-----5-------------
   ------------------------------------------------------------
   So, we could just ask her to leave
   
[Verse] 
A - Bm - C#m - D [2X]

   ------------------------------------------------------------
   ----3p2----3p2----3----3p2---3p2---3-------------------
   ------------------------------------------------------------
   ------------------------------------------------------------
   -0-------0-------0----2------2------2---------------------
   ------------------------------------------------------------
   I can't make my move, If she 
  
   ------------------------------------------------------------
   ---3p2----3p2---3/5---5-5-3-3-2-2-3--------------------
   ------------------------------------------------------------
   ------------------------------------------------------------
   -4------4------4-------------------------------------------
   ------------------------------------------------------------
   Stays here in my room

   ------------------------------------12----------------------
   -2-3-2h3p2----2p0--------10--------9h10---------------
   --------------2--------9/11----11-------------------------
   ------------------------------------------------------------
   ------------------------------------------------------------
   ------------------------------------------------------------
   Unless you say "It's okay"

   -9-------------------10---9h10p9-------------------------
   ---10-----9h10--------------------10---------------------
   -------11--------11-------------------9\7-----------------
   ------------------------------------------------------------
   ------------------------------------------------------------
   ------------------------------------------------------------
   Then I guess she could stay
  
 [Chorus]

             A                         Bm   
   If you really think it's fine
                      C#m                     D
   And if you promise me that she won't mind
                      A                 Bm   
   I guess it's okay if she wants to stay
         C#m                D              A - Bm - C#m -D
   As long as I can be alone with you
                 A - Bm - C#m -D
   Alone with you
                 A - Bm - C#m -D
   Alone with you
                 A - Bm - C#m -D
   Alone with you

[Outro]
A - Bm - C#m - D [2X]
   ------------------------------------------------------------
   ------------------------------------------------------------
   -----2-----2---2------2------2---2------------------------
   ---2-----2----------2------2-------------------------------
   -0-----0-----0---2------2------2--------------------------
   -------------------------------------------------------------
   If she was hot like you


   ------------------------------------------------------------
   ------------------------------------------------------------
   -----2-----2---2------------------------------------------
   ---2-----2----------------4-5-4h5p4----4\2--------------
   -4-----4-----4------4/5---------------5-------------------
   ------------------------------------------------------------
   I would ask her to join


   ------------------------------------------------------------
   ------------------------------------------------------------
   -----2-----2---2------2------2---2------------------------
   ---2-----2----------2------2-------------------------------
   -0-----0-----0---2------2------2--------------------------
   -------------------------------------------------------------
   But she's not, so she'll just have to

   ------------------------------------------------------------
   --------------------------5---------------------------------
   -----2-----2---2------7------------------------------------
   ---2-----2----------7--------------------------------------
   -4-----4-----4---5-----------------------------------------
   ------------------------------------------------------------
   Watch TV
Please rate this tab

Please login to submit your ratings.