The Ordertaker

Parokya Ni Edgar
Author:
Album:
Halina Sa Parokya (2005)
Difficulty:
Difficult
Tuning:
Drop D (D-A-D-G-B-E)
Capo:
No Capo
Date Published:
11 months ago
153 views

Chords

Em-022000
[Intro] Tuning: DROP D 

[Note] Kung di maayos itsura ng tabs sa phone niyo punta 
lang kayo sa settings tapos check niyo yung desktop mode

   -------------------------------------------------------
   -------------------------------------------------------
   -------------------------------------------------------
   -2---X-5-5-4-4-2---10---9--------------------------
   -2---X-5-5-4-4-2---10---9--------------------------
   -2---X-5-5-4-4-2---10---9--------------------------                               

   --------------------------------------------------------  
   --------------------------------------------------------  
   --------------------------------------------------------  
   -2---5-5-4-4-2---10---9-----------------------------
   -2---5-5-4-4-2---10---9-----------------------------
   -2---5-5-4-4-2---10---9-----------------------------

   --------------------------------------------------------    
   --------------------------------------------------------    
   --------------------------------------------------------    
   -5-5-4-4-2-2-------10---9---------------------------
   -5-5-4-4-2-2-[4X]- 10---9---------------------------
   -5-5-4-4-2-2-------10---9---------------------------

   -------------------------------------------------------    
   -------------------------------------------------------    
   -------------------------------------------------------    
   -2---X-5-5-4-4-2---10---9-------------------------  
   -2---X-5-5-4-4-2---10---9-------------------------  
   -2---X-5-5-4-4-2---10---9-------------------------  

   -------------------------------------------------------    
   -----5-----5-----5-----5-----------------------------  
   ---4-----4-----4-----4-------------------------------  
   -------------------------------------------------------    
   -------------------------------------------------------    
   -2-----2-----2-----2----------------------------------  

   -------------------------------------------------------    
   -----8-----8-----3-----4-----------------------------   
   ---7-----7-----2-----2-------------------------------  
   -------------------------------------------------------    
   -------------------------------------------------------    
   -5-----5-----0-----0---------------------------------   


   -------------------------------------------------------    
   -----5-----5-----5-----5-----------------------------  
   ---4-----4-----4-----4-------------------------------  
   -------------------------------------------------------    
   -------------------------------------------------------    
   -2-----2-----2-----2----------------------------------

   ---------------------------------------------------------
   ---------------------------------------------------------
   ---------------------------------------------------------
   ---------10---------10-----9---7-9--------------------  
   -----10---------10-------9-----------------------------
   -10---------10---------9-----9-------------------------
   Don't make me hungry
   You wouldn't like me when I'm hungry

[Verse]

   ----------------------------------------------------------
   ---------------------------------------------------------- 
   ----------------------------------------------------------
   -2-2---2-2-2-2-2-2-2-2-1-1---1-1-1-1-1-1-1-1-2-2-
   -2-2---2-2-2-2-2-2-2-2-1-1---1-1-1-1-1-1-1-1-2-2-
   -2-2---2-2-2-2-2-2-2-2-1-1---1-1-1-1-1-1-1-1-2-2-
   Waiter, pa-order naman ako ng pork chop
   At saka ng dalawa ngang kanin



   ---------------------------------------------------------
   ---------------------------------------------------------- 
   ----------------------------------------------------------
   -2-2-2-2-2-2-2-2-1-1---1-1-1-1-1-1-1-1-2-2-------
   -2-2-2-2-2-2-2-2-1-1---1-1-1-1-1-1-1-1-2-2-------
   -2-2-2-2-2-2-2-2-1-1---1-1-1-1-1-1-1-1-2-2------
   Lagyan mo na rin ng konting ketchup
   Mayro'n ba kayong chopsuey? (Wala po)



   ---------------------------------------------------------
   ---------------------------------------------------------- 
   ----------------------------------------------------------
   -2-2-2-2-2-2-2-2-1-1---1-1-1-1-1-1-1-1-2-2-------
   -2-2-2-2-2-2-2-2-1-1---1-1-1-1-1-1-1-1-2-2-------
   -2-2-2-2-2-2-2-2-1-1---1-1-1-1-1-1-1-1-2-2------
   Mayro'n ba kayong adobo? (Wala rin po)
   Mayro'n ba kayong bulalo? (Ubos na po)



   ---------------------------------------------------------
   ---------------------------------------------------------- 
   ----------------------------------------------------------
   -2-2-2-2-2-2-2-2-1-1---1-1-1-1-1-1-1-1------------
   -2-2-2-2-2-2-2-2-1-1---1-1-1-1-1-1-1-1-------------
   -2-2-2-2-2-2-2-2-1-1---1-1-1-1-1-1-1-1------------
   Mayro'n bang kahit na ano? (Wala) wala?

[Chorus]

   ---------------------------------------------------------
   ---------------------------------------------------------- 
   ----------------------------------------------------------
   -2---5-5-4-4-2---10---9-------------------------------
   -2---5-5-4-4-2---10---9--------------------------------
   -2---5-5-4-4-2---10---9--------------------------------
   Hoy! Wala na bang ma-o-
   Wala na bang ma-order, ma-order?



   ---------------------------------------------------------
   ---------------------------------------------------------- 
   ----------------------------------------------------------
   -2---5-5-4-4-2---10---9-------------------------------
   -2---5-5-4-4-2---10---9--------------------------------
   -2---5-5-4-4-2---10---9--------------------------------
   Shit! Mayro'n ngang menu
   Wala namang ma-order, oh, waiter



   ---------------------------------------------------------
   ---------------------------------------------------------- 
   ----------------------------------------------------------
   -2--5--4--2---------10---9----------------------------
   -2--5--4--2--[4X]-- 10---9---------------------------
   -2--5--4--2---------10---9---------------------------
   Sana naman, may siopao man lamang o burger



   ---------------------------------------------------------
   ---------------------------------------------------------- 
   ----------------------------------------------------------
   -2---5-5-4-4-2---10---9-------------------------------
   -2---5-5-4-4-2---10---9--------------------------------
   -2---5-5-4-4-2---10---9--------------------------------
   Pa-order, pa-order, pa-order

[Interlude]

   -------------------------------------------------------    
   -----5-----5-----5-----5-----------------------------  
   ---4-----4-----4-----4-------------------------------  
   -------------------------------------------------------    
   -------------------------------------------------------    
   -2-----2-----2-----2----------------------------------  

   -------------------------------------------------------    
   -----8-----8-----3-----4-----------------------------   
   ---7-----7-----2-----2-------------------------------  
   -------------------------------------------------------    
   -------------------------------------------------------    
   -5-----5-----0-----0---------------------------------   

   ---------------2-----0-------------------------------  
   ---5--------------------------------------------------
   -----4---4-4----4------------------------------------
   -------------------4----------------------------------
   ------------------------------------------------------
   -2-----2---------------2-2---------------------------

   ------------------------------------------------------- 
   ------------------------------------------------------
   ------------------------------------------------------
   ---------10---------10-----7-9-7------------------- 
   -----10---------10-------9--------9-----------------
   -10---------10---------9----------------------------

[Verse]

   ---------------------------------------------------------
   ---------------------------------------------------------- 
   ----------------------------------------------------------
   -2-2---2-2-2-2-2-2-2-2-1-1---1-1-1-1-1-1-1-1-2-2-
   -2-2---2-2-2-2-2-2-2-2-1-1---1-1-1-1-1-1-1-1-2-2-
   -2-2---2-2-2-2-2-2-2-2-1-1---1-1-1-1-1-1-1-1-2-2-
   Waiter, pa-order naman ako ng pork chop
   At saka ng dalawa ngang kanin



   ---------------------------------------------------------
   ---------------------------------------------------------- 
   ----------------------------------------------------------
   -2-2-2-2-2-2-2-2-1-1---1-1-1-1-1-1-1-1-2-2-------
   -2-2-2-2-2-2-2-2-1-1---1-1-1-1-1-1-1-1-2-2-------
   -2-2-2-2-2-2-2-2-1-1---1-1-1-1-1-1-1-1-2-2------
   Lagyan mo na rin ng konting ketchup
   Mayro'n ba kayong chopsuey? (Wala po)



   ---------------------------------------------------------
   ---------------------------------------------------------- 
   ----------------------------------------------------------
   -2-2-2-2-2-2-2-2-1-1---1-1-1-1-1-1-1-1-2-2-------
   -2-2-2-2-2-2-2-2-1-1---1-1-1-1-1-1-1-1-2-2-------
   -2-2-2-2-2-2-2-2-1-1---1-1-1-1-1-1-1-1-2-2------
   Mayro'n ba kayong adobo? (Wala rin po)
   Mayro'n ba kayong bulalo? (Ubos na po)



   ---------------------------------------------------------
   ---------------------------------------------------------- 
   ----------------------------------------------------------
   -2-2-2-2-2-2-2-2-1-1---1-1-1-1-1-1-1-1------------
   -2-2-2-2-2-2-2-2-1-1---1-1-1-1-1-1-1-1-------------
   -2-2-2-2-2-2-2-2-1-1---1-1-1-1-1-1-1-1------------
   Mayro'n bang kahit na ano? (Wala) wala?

[Chorus]

   ---------------------------------------------------------
   ---------------------------------------------------------- 
   ----------------------------------------------------------
   -2---5-5-4-4-2---10---9-------------------------------
   -2---5-5-4-4-2---10---9--------------------------------
   -2---5-5-4-4-2---10---9--------------------------------
   Hoy! Wala na bang ma-o-
   Wala na bang ma-order, ma-order?



   ---------------------------------------------------------
   ---------------------------------------------------------- 
   ----------------------------------------------------------
   -2---5-5-4-4-2---10---9-------------------------------
   -2---5-5-4-4-2---10---9--------------------------------
   -2---5-5-4-4-2---10---9--------------------------------
   Shit! Mayro'n ngang menu
   Wala namang ma-order, oh, waiter



   ---------------------------------------------------------
   ---------------------------------------------------------- 
   ----------------------------------------------------------
   -2--5--4--2---------10---9----------------------------
   -2--5--4--2--[4X]-- 10---9---------------------------
   -2--5--4--2---------10---9---------------------------
   Sana naman, may siopao man lamang o burger



   ----------------------------------------------------------
   ---------------------------------------------------------- 
   -----------------------------------------------------------
   -2---5-5-4-4-2---10---9---2----------------------------
   -2---5-5-4-4-2---10---9---2----------------------------
   -2---5-5-4-4-2---10---9---2----------------------------
   Pa-order, pa-order, pa-order

[Interlude]

   ---------------------------------------------------------
   ---------------------------------------------------------- 
   ----------------------------------------------------------
   -2-2---2-2-2-2-2---1-1--1-1-1-1-1-------------------
   -2-2---2-2-2-2-2---1-1--1-1-1-1-1-------------------
   -2-2---2-2-2-2-2---1-1--1-1-1-1-1------------------

   ---------------------------------------------------------
   ---------------------------------------------------------- 
   ----------------------------------------------------------
   -4-4---4-4-4-4-4---7-7---7-7-7-7--------------------
   -4-4---4-4-4-4-4---7-7---7-7-7-7--------------------
   -4-4---4-4-4-4-4---7-7---7-7-7-7--------------------

   ---------------------------------------------------------
   ---------------------------------------------------------- 
   ----------------------------------------------------------
   -2-2---2-2-2-2-2---1-1--1-1-1-1-1-------------------
   -2-2---2-2-2-2-2---1-1--1-1-1-1-1-------------------
   -2-2---2-2-2-2-2---1-1--1-1-1-1-1------------------

   ---------------------------------------------------------
   ---------------------------------------------------------- 
   ----------------------------------------------------------
   -4-4---4-4-4-4-4---7-7---7-7-7-7--------------------
   -4-4---4-4-4-4-4---7-7---7-7-7-7--------------------
   -4-4---4-4-4-4-4---7-7---7-7-7-7--------------------

[Outro]

   ---------------------------------------------------------
   ---------------------------------------------------------- 
   ----------------------------------------------------------
   -2--------1--------4--------7---------------------------
   -2-[8X]-- 1-[8X]-- 4-[8X]-- 7-[8X]---------------------
   -2--------1--------4--------7---------------------------
   Waiter (waiter), order (order)
   Waiter (waiter), order (order)
   Waiter na guwapito, ano ba'ng mayro'n dito?
   Waiter na guwapito, mayro'n bang 



   --------------------------------------------------------
   -------------------------------------------------------
   -------------------------------------------------------
   -2---10---5---10--------------------------------------
   -2---10---5---10--[4X]-------------------------------
   -2---10---5---10--------------------------------------
   Chicken mami?Longsi, tosi, at tapsi
   Pancit, lugaw, at lomi
   Tokwa't baboy, pares beef
   Fried siomai, gutom na talaga ako, whoa
   (Fried siomai) gutom na talaga ako, whoa

[Interlude]

   -------------------------------------------------------
   -------------------------------------------------------
   -------------------------------------------------------
   -3-3-3-3-3-3-5-4-4-5--[3X]------------------------
   -------------------------------------------------------
   -------------------------------------------------------

   --------------------------------------------------------
   -------------------------------------------------------
   -------------------------------------------------------
   -3-3-3-3-3-3-5-4-4-5\ slide downward------------
   -------------------------------------------------------
   -------------------------------------------------------

   --------------------------------------------------------
   -------------------------------------------------------
   -------------------------------------------------------
   -5---4---2--------------------------------------------
   -5---4---2--[8X]--------------------------------------
   -5---4---2---------------------------------------------

[Chorus]

   ---------------------------------------------------------
   ---------------------------------------------------------- 
   ----------------------------------------------------------
   -2---5-5-4-4-2---10---9-------------------------------
   -2---5-5-4-4-2---10---9--------------------------------
   -2---5-5-4-4-2---10---9--------------------------------
   Hoy! Wala na bang ma-o-
   Wala na bang ma-order, ma-order?



   ---------------------------------------------------------
   ---------------------------------------------------------- 
   ----------------------------------------------------------
   -2---5-5-4-4-2---10---9-------------------------------
   -2---5-5-4-4-2---10---9--------------------------------
   -2---5-5-4-4-2---10---9--------------------------------
   Shit! Mayroong menu
   Wala namang ma-order, oh, waiter



   ---------------------------------------------------------
   ---------------------------------------------------------- 
   ----------------------------------------------------------
   -2--5--4--2---------10---9----------------------------
   -2--5--4--2--[4X]-- 10---9---------------------------
   -2--5--4--2---------10---9---------------------------
   Sana naman, may siopao man lamang o burger



   ---------------------------------------------------------
   ---------------------------------------------------------- 
   ----------------------------------------------------------
   -2---5-5-4-4-2---10---9-------------------------------
   -2---5-5-4-4-2---10---9--------------------------------
   -2---5-5-4-4-2---10---9--------------------------------
   Pa-order, pa-order, pa-order

[Interlude]

   --------------------------------------------------------
   -------------------------------------------------------
   -------------------------------------------------------
   -5---4---2--------------------------------------------
   -5---4---2--[8X]--------------------------------------
   -5---4---2---------------------------------------------

[Outro]

   --------------------------------------------------------
   -------------------------------------------------------
   -------------------------------------------------------
   -2-2---4---5------------------------------------------
   -2-2---4---5--[4X]------------------------------------
   -2-2---4---5-------------------------------------------
   'Tang inang karinderya, wala man lang pangmeryenda
   'Tang inang karinderya, wala man lang pangmeryenda
Please rate this tab

Please login to submit your ratings.