Pan De Monio

Parokya Ni Edgar
Author:
Album:
Pogi Years Old (2016)
Difficulty:
Normal
Tuning:
Standard (E-A-D-G-B-E)
Capo:
No Capo
Date Published:
1 year ago
473 views

Chords

Em-022000D-XX0232C-X32010G-320033D/F# - 2X0232Bm-X24432
[Intro]
Em - D - C - G - Em - D - Bm - C  [2X]

[Guitar 1] [2X]

   ---7------------------------------------------------------
   -----8---7h8---7----7-----7h8--------------------------
   -9-----9-----9----------9-------7\5---------------------
   -------------------9-------------------3/5\--------------
   ---------------------------------------------------------
   ---------------------------------------------------------

   ---7-----------------------------------------------------
   -----8---7h8---7----7-----7h8-------------------------
   -9-----9-----9----------9-------7\4---4---4/5---------
   -------------------9-------------------------------------
   ---------------------------------------------------------
   ---------------------------------------------------------

[Guitar 2]

   ---------------------------------------------------------
   --------------------------8-7-5-------8-7-5----5------
   -4---4--------------------------7\4----------7---------
   --------5/7---7---7---5--------------------------------
   ---------------------------------------------------------
   ---------------------------------------------------------

   ---------------------------------------------------------
   -5-----------------8-7-5----5---8-7-5-----------------
   ----7---7---7\4----------7-------------7\4-------------
   ---------------------------------------------------------
   ---------------------------------------------------------
   ---------------------------------------------------------

   ---------------------------------------------------------
   ---------------------8-7-5-------8-7-5----5-----------
   -4--------------------------7\4----------7-------------
   ----5/7---7---7---5------------------------------------
   ---------------------------------------------------------
   ---------------------------------------------------------

   ---------------------------------------------------------
   -5-----------------8-7-5----5\-------------------------
   ----7---7---7\4----------7-----------------------------
   ---------------------------------------------------------
   ---------------------------------------------------------
   ---------------------------------------------------------

[Verse]

Em            D/F#   Bm      C               Em-D/F#-Bm-C
   Kay ganda ganda ng iyong mukha
Em                 D/F#          Bm    C            Em-D/F#-Bm-C
   Parang anghel na sa langit ay bumaba
   
[Chorus]
                       G                                Bm
   Ngunit ang pangit ng ugali mo (Pan De Monio)
                          C                                 D/F#       
   Mukhang anghel ngunit ang asal mo (Pan De Monio)
                         G                   Bm
   Ang pangit ng ugali mo (Pan De Monio)
                          C                                D/F#---G
   Mukhang anghel ngunit ang asal mo (Pan De Monio)
   
[Verse]
   
C   		   D             Bm                    Em
   Hindi ko maintindihan kung bakit ka ganyan
C              D                       Em
   Dati naman ika’y mabait
C   		      D                         Bm                            Em
   Ngayo’y pakitang tao’t pagyayabang lang ang yong alam
C                         D                           G
   Pag may lumamang ikaw ay galet
   
[Pre-Chorus]

Em           D                    C                        G  
   Nakakagulat ang maamo mong mukha
Em              D                  Bm        C
   Maliit na bagay lang ika’y nagwawala
Em           D               C           G  
   At ang iyong mga labi na kaakit-akit
Em               D                          Bm                  C            D
   Bukang bibig ay mura’t walang patid na panlalait
          
   
[Chorus] 
            G                               Bm
   Ang pangit ng ugali mo (Pan De Monio)
           C                                                D/F#
   Mukhang anghel ngunit ang asal mo (Pan De Monio)
            G                               Bm
   Ang pangit ng ugali mo (Pan De Monio)
           C                                                D/F#
   Mukhang anghel ngunit ang asal mo (Pan De Monio)
   
[Interlude] Repeat Intro
Em - D - C - G - Em - D - Bm - C [2X]
   
[Verse]

Em           D        C                G   
   Bakit kaya bigla na lang ika’y nagbago
Em         D                  Bm        C
   Kagandahan mo’y isang balat-kayo
Em         D          C                   G
   Di maikukubli ng tamis ng iyong mga ngiti
Em                      D                   Bm      C                 D
   Ang tunay na kulay mo at itim ng yong budhi
   
[Bridge]
   
C                       D                    Bm           Em  
   Ang yong kawangis ay bulaklak na anong rikit
C                     D                   Em
   Punong-puno pala ng tinik
C               D                  Bm          Em  
   Ako’y nabulag sa gayuma ng iyong anyo
C             D                        G
   Nasa loob pala ang kulo
   
[Chorus] 
                     G                                Bm
   Dahil ang pangit ng ugali mo (Pan De Monio)
           C                                                D/F#
   Mukhang anghel ngunit ang asal mo (Pan De Monio)
            G                               Bm
   Ang pangit ng ugali mo (Pan De Monio)
           C                                                D/F#---G
   Mukhang anghel ngunit ang asal mo (Pan De Monio)

[Outro]
   
Em           D/F#    Bm     C               Em-D/F#-Bm-C
   Kay ganda ganda ng yong mukha
Em                 D/F#          Bm   C             Em-D/F#-Bm-C
   Parang anghel na sa langit ay bumaba
   
         
Please rate this tab

Please login to submit your ratings.