Pakiusap Lang – Lasingin Niyo Ako

Parokya Ni Edgar
Author:
Album:
Middle-Aged Juvenile Novelty Pop Rockers (2010)
Difficulty:
Difficult
Tuning:
Standard (E-A-D-G-B-E)
Capo:
No Capo
Date Published:
10 months ago
625 views

Chords

E-022100A-X02220B-X24442C#m-X46654
[Intro]
E - A - E - B [3X]
E - A - B

[Note] Kung di maayos itsura ng tabs sa phone niyo punta 
lang kayo sa settings tapos check niyo yung desktop mode

   -12-11-12---0-9-7-0-2-4-0-5-4-0-5-7/-------------
   --------------------------------------------------------
   - 9-- 8-- 9--------------------------------------------
   --------------------------------------------------------
   --------------------------------------------------------
   --------------------------------------------------------

   -12-11-12---0-9-7-0-2-4-0-5-4-0-2------------
   -----------------------------------------4/---------------
   - 9-- 8-- 9--------------------------------------------
   --------------------------------------------------------
   --------------------------------------------------------
   --------------------------------------------------------

   -12-11-12---0-9-7-0-2-4-0-5-4-0-5-7/-------------
   --------------------------------------------------------
   - 9-- 8-- 9--------------------------------------------
   --------------------------------------------------------
   --------------------------------------------------------
   --------------------------------------------------------

   -7-9-11-0-12p11-0-7\--------------------------------
   --------------------------------------------------------
   --------------------------------------------------------
   --------------------------------------------------------
   --------------------------------------------------------
   --------------------------------------------------------

[Verse]

                   E                 A                        E                  B
   Sino pa ba'ng hinihintay? Ba't 'di pa tayo sumakay?
                 E                        A                        E                    B
   Excited na 'kong umalis, sige na please, konting bilis
                  E                 A                     E             B
   Saan ba tayo pupunta? Kahit saan, bahala na
                       E                    A                                 E                   B
   Wala 'kong baong extra brief, pwedeng side B ta's auto flip

[Refrain]

            A    B                                               A
   Biglaan, wala nang oras pa na pagptaluhan
   B                                             A
   Gusto ko na kasi siyang kalimutan
         B
   Kaya't pakibilisan

[Verse]

                     E                    A                        E                       B
   Saan man tayo magpunta, walang sablay, sobrang saya
                     E                  A                         E                      B
   Kahit sa'n tayo mapadpad, basta may baon na lapad
                      E                        A                          E                B
   'Pagkat kailangan ko na munang mag-relax ng lalamunan
               E                A                   E                       B
   Tapos magpakalunod sa alak ang pusong pagod

[Refrain]

            A    B                                             A
   Biglaan, biglaan niya na lang akong iniwan
   B                                                    A
   Gusto ko lamang siyang makalimutan
           B
   Kaya nagkayayaan

[Chorus]

              E                        A                  B   
   Tara na, samahan niyo 'kong magsaya
              E             A                       B   
   Sige na, ayoko munang mag-isa
              C#m                       B            E                      A
   Sapagkat ngayon lang ako nasaktan nang ganito
       C#m              B                                E-A-C#m-B[2X]
   Kaya pakiusap lang, lasingin n'yo ako

[Verse]

                  E                            A                          E                     B
   Tuloy-tuloy niyo lang ang tagay hanggang mawalan ng malay
                    E                       A                       E                   B
   Loko lang, siyempre naman, maghahanap muna ng away
                    E                    A                    E                      B
   Loko lang, walang gano'n, gusto ko lamang mag-inuman
             E                           A                   E                      B
   Okay lang ang dahan-dahan, ang amats ay 'di kailangan

[Refrain]

              A       B                                           A
   Na biglaan, relax lang tayo 'pag nag-iinuman
   B                                                    A
   Gusto ko lamang siyang makalimutan
                    B
   Kailangan lang maglibang

[Chorus]

              E                        A                  B   
   Tara na, samahan niyo 'kong magsaya
              E             A                       B   
   Sige na, ayoko munang mag-isa
              C#m                       B            E                      A
   Sapagkat ngayon lang ako nasaktan nang ganito
       C#m              B                            
   Kaya pakiusap lang
              E                        A                  B   
   Tara na, samahan niyo 'kong magsaya
              E             A                       B   
   Sige na, ayoko munang mag-isa
              C#m                       B            E                      A
   Sapagkat ngayon lang ako nasaktan nang ganito
       C#m              B                                E-A
   Kaya pakiusap lang, lasingin n'yo ako
       C#m              B                                E-A
   Kaya pakiusap lang, lasingin n'yo ako
       C#m              B                                E-A-E-B[4X] E---
   Kaya pakiusap lang, lasingin n'yo ako
Please rate this tab

Please login to submit your ratings.