Bato

Eraserheads
Author:
Album:
Circus (1994)
Difficulty:
Difficult
Tuning:
Standard (E-A-D-G-B-E)
Capo:
No Capo
Date Published:
9 months ago
481 views

Chords

A5 - 577XXXD - X57775C - X35553G5 - 355XXXE-022100C5 - X355XXD5 - X577XXG#5 - 466XXXF#5 - 244XXXC#5 - X466XXB5 - X244XXEb5 - X688XX
[Intro] 

[Acoustic]
D - C
A5-A5-G5-A5---G5-D5
A5-A5-G5-A5---C5 slide D5-C5
A5-A5-G5-A5---G5-E

[Electric]

C#5-B5-G#5-F#5-G#5
C#5-B5-G#5-F#5-G#5
C#5-B5-G#5-F#5-G#5---B5---C#5

[Riff]
G#5-G#5-F#5-G#5

   Eto yung pull off na bass
   ----------------------------------------------------
   ----------------------------------------------------
   ----------------------------------------------------
   ----------------------------------------------------
   ----------------------------------------------------
   -4p2-4p2-4p2------------------------------------

G#5-G#5-F#5-B5-C#5
G#5-G#5-F#5-G#5
F#5-G#5-Eb5


[Verse] Use [Riff]

   Sang linggong wala sa bahay
   Pare ayoko ng mag-aral
   Hinahanap na ako ni nanay
   Di malaman ang gagawin

   ----------------------------------------------------
   ----------------------------------------------------
   ----------------------------------------------------
   ----------------------------------------------------
   -4-2-----------------------------------------------
   ------4-2-4---------------------------------------

[Verse] Use [Riff]

   Paghawak-hawak ng gitara
   Bat di mo matapos ang kanta
   Nakatira sa kakilala
   Hoy pahiram naman ng tuwalya mo

   ----------------------------------------------------
   ----------------------------------------------------
   ----------------------------------------------------
   ----------------------------------------------------
   -4-2-----------------------------------------------
   ------4-2-4---------------------------------------

[Chorus]

B5(Ulitin ayon sa melody)---B5-C#5-C#5-B5
   Hoy hoy hoy bato na naman
B5(Ulitin ayon sa melody)---B5-C#5-B5-F#5-G5-G#5
   Asan na bang barkada't kaibigan
B5(Ulitin ayon sa melody)---B5-C#5-C#5-B5
   Wala ba tayong gimik diyan
B5(Ulitin ayon sa melody)---C#5
   Asan na ba kayo pautang naman

   ----------------------------------------------------
   ----------------------------------------------------
   -6s8---6p4-6p4-----------------------------------
   -------------------6p4-6---------------------------
   ----------------------------------------------------
   ----------------------------F#5-G5-G#5----------


[Verse] Use [RIff]

   Sang linggong wala sa bahay
   Pare ayoko ng mag-aral
   Hinahanap na ako ni nanay
   Di malaman ang gagawin

   ----------------------------------------------------
   ----------------------------------------------------
   ----------------------------------------------------
   ----------------------------------------------------
   -4-2-----------------------------------------------
   ------4-2-4---------------------------------------

[Verse] Use [RIff]

   Paghawak-hawak ng gitara
   Bat di mo matapos tapos ang kanta
   Nakatira sa kakilala
   Hoy pahiram naman ng tuwalya mo

   ----------------------------------------------------
   ----------------------------------------------------
   ----------------------------------------------------
   ----------------------------------------------------
   -4-2-----------------------------------------------
   ------4-2-4---------------------------------------

[Chorus]

B5(Ulitin ayon sa melody)---B5-C#5-C#5-B5
   Hoy hoy hoy bato na naman
B5(Ulitin ayon sa melody)---B5-C#5-B5-F#5-G5-G#5
   Asan na bang barkada't kaibigan
B5(Ulitin ayon sa melody)---B5-C#5-C#5-B5
   Wala ba tayong gimik diyan
B5(Ulitin ayon sa melody)---C#5
   Asan na ba kayo pautang naman

   ----------------------------------------------------
   ----------------------------------------------------
   -6s8---6p4-6p4-----------------------------------
   -------------------6p4-6---------------------------
   ----------------------------------------------------
   ----------------------------F#5-G5-G#5----------

[Solo] 
G#5-G#5---F#5-F#5---Eb5 [4X]

Repeat Riff [2X]

   ----------------------------------------------------
   ----------------------------------------------------
   ----------------------------------------------------
   ----------------------------------------------------
   -4-2----------[3X]---B5--C#5--------------------
   ------4-2-4---------------------------------------

[Chorus]

B5(Ulitin ayon sa melody)---B5-C#5-C#5-B5
   Hoy hoy hoy bato na naman
B5(Ulitin ayon sa melody)---B5-C#5-B5-F#5-G5-G#5
   Asan na bang barkada't kaibigan
B5(Ulitin ayon sa melody)---B5-C#5-C#5-B5
   Wala ba tayong gimik diyan
B5(Ulitin ayon sa melody)---C#5
   Asan na ba kayo pautang naman

[Outro] Repeat until end of song

   ------------------------------------------------------
   ------------------------------------------------------
   ------------------------------------------------------
   ------------------------------------------------------
   -----------------------Eb5-C#5---2h4p2-----------
   -G#5---2h4p2h4p2---------------------------------
Please rate this tab

Please login to submit your ratings.